Cifra Club

The Space Between

Dave Matthews Band

Tab de baixo: Principal
exibições 723
CD - Everyday

Tabbed by - Laroii
*


This song, according to the video and others, requires a five string
bass. If you don't have one, you must drop d tuning (DADG) if you
want the song to sound right. This is tabbed on a four string bass.


The bass comes in after the Intro.
~~ means let the note ring.
x means a ghost note.
/ means slide from note to note (example: 4/6)

Song Verse
G -----------------------------------------
D -----------------------------------------
A -----------------------------------------
D --2-2-2--0~~-----0-0-0~~--0-0-0~~---0----

Song Chorus
G -------------------------------------
D -------------------------------------
A -------------------------------------
D --7-x7-7----6-x6-6----4-x4-4---/6----

Only Bridge
G ----------------------------
D ----------------------------
A -----------------/7-5-------
D --9--7---6-5--4--------9----

End Bridge (...is hope we don't take this ship down.)
G ------------
D ------------
A ------------
D --4--3~~----

Song End
G --------16/18------------
D --14------------18/16----
A -------------------------
D -------------------------

0 comentários

    mostrar mais comentários

    Conseguiu tocar?

    0tocaram0ainda não

    Grave um vídeo tocando The Space Between e mande pra gente!

    00:00 / 00:00
    outros vídeos desta música
    repetirqualidadeautomática
    Outro vídeos desta música
      00:00 / 00:00
      automática
      OK