Cifra Club

Sobre Toda Carne

Davi Fernandes

Cifra: Principal (violão e guitarra)
tom: C
[Intro] Am  C  G

Am                 C
  Pode entrar Jesus
             G
A porta está aberta
Am                 C
  Pode entrar Jesus
              G
A porta está aberta

    F               C
Te queremos mais que tudo
     F                   G
Desejamos tua Habitação aqui
    F               C
Te queremos mais que tudo
     F                   G
Desejamos tua Habitação aqui

Am
Oh se Fendesses os Céus e viesse
G                  
Oh se Fendesses os Céus e viesse
F                              G
Oh se Fendesses os Céus e viesse
Vem, vem

Am
Sobre toda Carne
C
Povos e nações
                 F
No vale de ossos secos vida outra vez
           G
Vida outra vez
Vem, vem, vem

[Solo] Am  F  Am  F

E|--12-10-12-----12-13-12-10-12--------------------|
B|-----------10-----------------10-----------------|
G|-------------------------------------------------| (3X)
D|-------------------------------------------------|
A|-------------------------------------------------|
E|-------------------------------------------------|

E|-13-12-10--13-12-10----13-12-10--13-12-10--------|
B|------------------------------------------13-12--|
G|-------------------------------------------------|
D|-------------------------------------------------|
A|-------------------------------------------------|
E|-------------------------------------------------|

Am
Vem com fogo e toda a sua Glória
F
Vem com fogo e toda a sua Glória
Am
Vem com fogo e toda a sua Glória
F
Fogo e Glória , Fogo e Glória
Composição de Davi Fernandes
Colaboração e revisão:
  • Leticia Oliveira
  • Eduardo Barros
6.043 exibições
    • ½ Tom
    • A
    • Bb
    • B
    • C
    • Db
    • D
    • Eb
    • E
    • F
    • F#
    • G
    • Ab
  • Adicionar à lista

    0 comentários

    Ver todos os comentários
    00:00 / 00:00
    Outros vídeos desta música
    Repetir Qualidade Automático
    Outros vídeos desta música
    00:00 / 00:00
    Automático

    Cifra Club Pro

    Aproveite o Cifra Club com benefícios exclusivos e sem anúncios
    Cifra Club Pro
    Aproveite o Cifra Club com benefícios exclusivos e sem anúncios
    OK