Cifra Club

Quando Eu Te Adoro

Davi Sacer

Cifra: Principal
exibições 52.563
Tom: G
[Intro]  Em7  C  D/B  A
         Em7  C  D/B  A

     Em7        C         D/B ou Bm    A
E|-----------------------------------5-----------------|
B|--7-----8---7-----8---7--8--7------5-----------------|
G|--9--9------9--9------7--------7---6-----------------|
D|-----------------------------------7-----------------|
A|--7--------------------------------7-----------------|
E|------------8---------7------------5-----------------|

Em7                       C
Quando eu te adoro meu Senhor
D/B                  Em7 D  Em7
O meu amor por ti cresce
Em7                           C
E quando prostro-me aos teus pés
D/B                 Em7
Mais de mim desaparece

Am7             D
Reconheço que ainda há
G         D/F#       Em          C   Am
Muito em mim a ser deixado no altar
                  C
Purifica a minh'alma
               D/B           Em7
Queima a palha que existe em mim

( Em7  D/F#  G  Am7  G/B  C )

                   C    D/C
Vem com teu     fogo Senhor
        C/A   D/B     Em7
E apura o meu coração
              C        Bm                A   Em7
Vem com tua glória Senhor,   preciso de ti
                   C    D/C
Vem com teu     fogo Senhor
        C/A   D/B   Em7
E apura o meu coração
G/D           C        Bm                A   Em7
Vem com tua glória Senhor,   preciso de ti

[Solo]  C  Am7  D/B  A  C  D/B  A

E|------------------------------------------------------------------------------------------|
B|--9/12-12--15--15b17r15--12h13-13-12------------------------------------------------------|
G|-------------------------------------14-12-11~----------12----12h14~-12-11---------12-----|
D|--------------------------------------------------12h14----14--------------12---12----14--|
A|------------------------------------------------------------------------------12----------|
E|------------------------------------------------------------------------------------------|

E|-----------------------------------------12-12--15-15-15/19-19--17b19r17----14h15-14--------------------------15----|
B|----------------------------12-12--15-15---------------------------------15----------17-15----15h17--15h17~--15-17--|
G|--------11-11--12-12--14-14----------------------------------------------------------------16-----------------------|
D|--14-14-------------------------------------------------------------------------------------------------------------|
A|--------------------------------------------------------------------------------------------------------------------|
E|--------------------------------------------------------------------------------------------------------------------|

E|--------------------12-14-15h17p15p14p12----------------------------------12-14-15h17p15p14p12--------------------------|
B|-----------12-13-15----------------------15-13-12----------------12-13-15----------------------15-13-12---15h17--15h17--|
G|--11-12-14----------------------------------------14-12-11-12-14--------------------------------------------------------|
D|------------------------------------------------------------------------------------------------------------------------|
A|------------------------------------------------------------------------------------------------------------------------|
E|------------------------------------------------------------------------------------------------------------------------|

( Em7  D/F#  G  Am7 G/B  G/D  C )

                   C    D/C
Vem com teu     fogo Senhor
       Am7    G/B  Em7
E apura o meu coração
              C       Bm                 A   Em7
Vem com tua glória Senhor,   preciso de ti
                   C    D/C
Vem com teu     fogo Senhor
       C/A    D/B  Em7
E apura o meu coração
              C        Bm                A   Em7
Vem com tua glória Senhor,   preciso de ti

                C     D/C             Em7
Preciso de     ti, Senhor, preciso de ti
                C     D/C             Em7
Preciso de     ti, Senhor, preciso de ti

[Final]  Em7  C  D/B  Em7
Acordes para:

    0 comentários

      mostrar mais comentários

      Conseguiu tocar?

      3tocaram0ainda não

      Grave um vídeo tocando Quando Eu Te Adoro e mande pra gente!

      00:00 / 00:00
      outros vídeos desta música
      repetirqualidadeautomática
      Outro vídeos desta música
        00:00 / 00:00
        automática
        OK