Cifra Club

Aprenda

Tu És Meu Abrigo

Davi Sacer

Cifra: Principal (violão e guitarra)
tom: F# (forma dos acordes no tom de E) Capotraste na 2ª casa
[Intro] Em  C  G  D/F#
        Em  C  G  D/F#

E|-------------------------9-------9--------------------------------|
B|----10-12----10-12----10------10------10-12-10-9------7/9---5/10--|
G|--9--------9--------9-------9-------9------------9~--9------------|
D|------------------------------------------------------------------|
A|------------------------------------------------------------------|
E|------------------------------------------------------------------|

E|-------------------------9-------9--------------------------------|
B|----10-12----10-12----10------10------10-12-10-9------7/9---5p0---|
G|--9--------9--------9-------9-------9------------9~--9------------|
D|------------------------------------------------------------------|
A|------------------------------------------------------------------|
E|------------------------------------------------------------------|

Em                  C
  O Senhor é minha luz e salvação
         G               D/F#
Não temerei, eu não temerei
Em                     C
  Minha força em dias de tribulação
         G               D/F#
Não temerei, eu não temerei

     Am         C
Meu coração firmado está
         G            D/F#
Em ti ó Deus, libertador meu
    Am         C
Eu viverei só para ti
         G                D/F#    C/E  D/F#
Proclamarei teu nome pra sempre

 G                 D/F#
Tu És Meu abrigo, minha torre forte
 Am                  C
Rocha que me salva, meu lugar seguro
 G                    D/F#
Sei que tu me amas, e eu também te amo
Am                   C
Encontrei descanso, para minha alma em ti

( Em  C  G  D/F# )

E|-------------------------9-------9--------------------------------|
B|----10-12----10-12----10------10------10-12-10-9------7/9---5p0---|
G|--9--------9--------9-------9-------9------------9~--9------------|
D|------------------------------------------------------------------|
A|------------------------------------------------------------------|
E|------------------------------------------------------------------|

Em                  C
  O Senhor é minha luz e salvação
         G               D/F#
Não temerei, eu não temerei
Em                     C
  Minha força em dias de tribulação
         G               D/F#
Não temerei, eu não temerei

     Am         C
Meu coração firmado está
         G            D/F#
Em ti ó Deus, libertador meu
    Am         C
Eu viverei só para ti
         G                D/F#    C/E  D/F#
Proclamarei teu nome pra sempre

 G                 D/F#
Tu És Meu abrigo, minha torre forte
 Am                  C
Rocha que me salva, meu lugar seguro
 G                    D/F#
Sei que tu me amas, e eu também te amo
Am                   C
Encontrei descanso, para minha alma em ti

 G                 D/F#
Tu És Meu abrigo, minha torre forte
 Am                  C
Rocha que me salva, meu lugar seguro
 G                    D/F#
Sei que tu me amas, e eu também te amo
Am                   C
Encontrei descanso, para minha alma em ti

( G  C  G  C )

G
O Senhor é bom
                            C
Meu refúgio em tempos de angústia
G
O Senhor é bom
                            C
Meu refúgio em tempos de angústia
G
O Senhor é bom
                            C
Meu refúgio em tempos de angústia
G
O Senhor é bom
                            C
Meu refúgio em tempos de angústia

 G                 D/F#
Tu És Meu abrigo, minha torre forte
 Am                  C
Rocha que me salva, meu lugar seguro
 G                    D/F#
Sei que tu me amas, e eu também te amo
Am                   C
Encontrei descanso, para minha alma em ti

 G                 D/F#
Tu És Meu abrigo, minha torre forte
 Am                  C
Rocha que me salva, meu lugar seguro
 G                    D/F#
Sei que tu me amas, e eu também te amo
Am                   C                   G
Encontrei descanso, para minha alma em ti
Colaboração e revisão:
  • Thiago Almeida
  • Darci Junior
99.528 exibições
  • Simplificar cifra
    • ½ Tom
    • A
    • Bb
    • B
    • C
    • Db
    • D
    • Eb
    • E
    • F
    • F#
    • G
    • Ab
  • Adicionar à lista

    0 comentários

    Ver todos os comentários
    00:00 / 00:00
    outros vídeos desta música
    repetir qualidade Automático
    Outros vídeos desta música
    00:00 / 00:00
    Automático

    Cifra Club Pro

    Aproveite o Cifra Club com benefícios exclusivos e sem anúncios
    Cifra Club Pro
    Aproveite o Cifra Club com benefícios exclusivos e sem anúncios
    OK