Cifra Club

Tu És Meu Abrigo

Davi Sacer

Cifra: Principal (violão e guitarra)
tom: F#m (forma dos acordes no tom de Em) Capotraste na 2ª casa
[Intro] Em  C  G  D/F#
        Em  C  G  D/F#

[Tab - Solo Intro] 

Parte 1 de 4
E|-------7------7------9------9------------|
B|----10-----10-----10-----10--------------|
G|--9------9------9------9-----------------|
D|-----------------------------------------|
A|-----------------------------------------|
E|-----------------------------------------|

Parte 2 de 4
E|-------7---------------------------------|
B|----10---10-9-------7h9---10-------------|
G|--9-----------9~--9-----9----------------|
D|-----------------------------------------|
A|-----------------------------------------|
E|-----------------------------------------|

Parte 3 de 4
E|-------7------7------9------9------------|
B|----10-----10-----10-----10--------------|
G|--9------9------9------9-----------------|
D|-----------------------------------------|
A|-----------------------------------------|
E|-----------------------------------------|

Parte 4 de 4
E|-------7---------------------------------|
B|----10---10-9-------7h9------------------|
G|--9-----------9~--9-----9/4--------------|
D|-----------------------------------------|
A|-----------------------------------------|
E|-----------------------------------------|

[Primeira Parte]

Em                   C
   O Senhor é minha luz e salvação
         G               D/F#
Não temerei, eu não temerei
Em                      C
   Minha força em dias de tribulação
         G               D/F#
Não temerei, eu não temerei

[Pré-Refrão]

     Am         C
Meu coração firmado está
         G            D/F#
Em ti ó Deus, libertador meu
    Am         C
Eu viverei só para ti
         G                D/F#  C/E  D/F#
Proclamarei teu nome pra sempre

[Refrão]

 G                 D/F#
Tu És Meu abrigo, minha torre forte
 Am                  C
Rocha que me salva, meu lugar seguro
 G                    D/F#
Sei que tu me amas, e eu também te amo
Am                   C
Encontrei descanso, para minha alma em ti

[Solo] Em  C  G  D/F# 

Parte 1 de 2
E|-----------------------------------------|
B|----10-12----10-12-----------------------|
G|--9--------9-----------------------------|
D|-----------------------------------------|
A|-----------------------------------------|
E|-----------------------------------------|

Parte 2 de 2
E|------9-----9----------------------------|
B|---10----10-----10-12-10-9------7/9-5p0--|
G|-9-----9------9------------9~-9----------|
D|-----------------------------------------|
A|-----------------------------------------|
E|-----------------------------------------|

[Primeira Parte]

Em                   C
   O Senhor é minha luz e salvação
         G               D/F#
Não temerei, eu não temerei
Em                      C
   Minha força em dias de tribulação
         G               D/F#
Não temerei, eu não temerei

[Pré-Refrão]

     Am         C
Meu coração firmado está
         G            D/F#
Em ti ó Deus, libertador meu
    Am         C
Eu viverei só para ti
         G                D/F#  C/E  D/F#
Proclamarei teu nome pra sempre

[Refrão]

 G                 D/F#
Tu És Meu abrigo, minha torre forte
 Am                  C
Rocha que me salva, meu lugar seguro
 G                    D/F#
Sei que tu me amas, e eu também te amo
Am                   C
Encontrei descanso, para minha alma em ti

 G                 D/F#
Tu És Meu abrigo, minha torre forte
 Am                  C
Rocha que me salva, meu lugar seguro
 G                    D/F#
Sei que tu me amas, e eu também te amo
Am                   C
Encontrei descanso, para minha alma em ti

( G  C  G  C )

[Ponte]

G
O Senhor é bom
                            C
Meu refúgio em tempos de angústia
G
O Senhor é bom
                            C
Meu refúgio em tempos de angústia
G
O Senhor é bom
                            C
Meu refúgio em tempos de angústia
G
O Senhor é bom
                            C
Meu refúgio em tempos de angústia

[Refrão Final]

 G                 D/F#
Tu És Meu abrigo, minha torre forte
 Am                  C
Rocha que me salva, meu lugar seguro
 G                    D/F#
Sei que tu me amas, e eu também te amo
Am                   C
Encontrei descanso, para minha alma em ti

 G                 D/F#
Tu És Meu abrigo, minha torre forte
 Am                  C
Rocha que me salva, meu lugar seguro
 G                    D/F#
Sei que tu me amas, e eu também te amo
Am                   C
Encontrei descanso, para minha alma em ti
00:00 / 00:00
Outros vídeos desta música
Repetir
Outros vídeos desta música
Compositor não encontrado.
Colaboração e revisão:
  • Gustavo Zanandrez
  • Thiago Almeida
  • Darci Junior
134.849 exibições
  • Simplificar cifra
    • ½ Tom
    • Am
    • Bbm
    • Bm
    • Cm
    • C#m
    • Dm
    • Ebm
    • Em
    • Fm
    • F#m
    • Gm
    • G#m
  • Adicionar à lista

    0 comentários

    Ver todos os comentários

    Entre para oCifra Club PRO

    Tenha acesso a benefícios exclusivos no App e no Site

    • Chega de anúncios

    • Prioridade de compra em lançamentos

    • Mais recursos no app do Afinador

    • Atendimento Prioritário

    • Descontos nos produtos Cifra Club

    • Ajude a produzir mais conteúdo

    00:00 / 00:00

    Cifra Club Pro

    Aproveite o Cifra Club com benefícios exclusivos e sem anúncios
    Cifra Club Pro
    Aproveite o Cifra Club com benefícios exclusivos e sem anúncios
    OK