Cifra Club

Aprenda

All The Young Dudes

David Bowie

Cifra: Principal (violão e guitarra)
Quer fazer aulas de música com a gente? Responda essas perguntas
e nos ajude nesse projeto! →
tom: A
[Intro]

E|-14------14----12--14--12--14--12--9--10-------10----9--10--9--10--9--7--5--------------------|
B|---15------------------------------------12---------------------------------------------------|
G|-----14-------------------------------------11------------------------------------------------|
D|----------------------------------------------------------------------------------------------|
A|----------------------------------------------------------------------------------------------|
E|----------------------------------------------------------------------------------------------|

E|8h9--9--9--9--8--7--5--8h9--9--9--9--7--5--10b12-------------------------------------|
B|----------------------------------------------------------------------------------------------|
G|----------------------------------------------------------------------------------------------|
D|----------------------------------------------------------------------------------------------|
A|----------------------------------------------------------------------------------------------|
E|----------------------------------------------------------------------------------------------|

 D                         D7M
Billy rapped all night about his suicide
         Bm                             Bm7
How he’d kick it in the head when he was twenty-five
F#m                                                A
Speed jive, don’t wanna stay alive when I’m twenty-five

      D                            D7M
And Wendy’s stealing clothes from unlocked cars
      Bm                      Bm7
And Freddy’s got scars from ripping the stars
          F#m                     A
From his face, funky little boat race

        Em
Oh! the television man is crazy
                     F#              Bm
Saying we’re all juvenile delinquent wrecks
       G            D               A
Oh but man, I need TV now there’s no T Rex
            A7sus4
Brother you guessed... I’m a dude, yeah!

[Refrão]

D    D7M                 Bm   Bm7
     All the Young Dudes        Carry the News
Am   Am7              F    C               G  C  A  D
     Boogaloo Dudes        Carry the News
D    D7M                 Bm   Bm7
     All the Young Dudes        Carry the News
Am   Am7              F    C               G  C  A  D
     Boogaloo Dudes        Carry the News

Now Mary looks sweet, cos he dresses like a queen
But he can kick like a mule; it’s a real mean team
We can love, we can love

And my brother’s back at home with his Beatles and his Stones
We never got it off on the revolution stuff
What a drag – too many snags

       Em
Well I drunk a lot of wine and I’m feeling fine
      F#               Bm
Gotta race some cat to bed
        G            D                     A
Is this concrete all around or is it in my head?
               A7sus4
Brother you’ve guessed, that I’m a dude yeah!

[Refrão]

D    D7M                 Bm   Bm7
     All the Young Dudes        Carry the News
Am   Am7              F    C               G  C  A  D
     Boogaloo Dudes        Carry the News
Composição de David Bowie
Colaboração e revisão:
14.130 exibições
    • ½ Tom
    • A
    • Bb
    • B
    • C
    • Db
    • D
    • Eb
    • E
    • F
    • F#
    • G
    • Ab
  • Adicionar à lista

    0 comentários

    Ver todos os comentários

    Conseguiu tocar?

    5 Tocaram 0 Ainda não

    Grave um vídeo tocando All The Young Dudes e nos envie!

    00:00 / 00:00
    Outros vídeos desta música
    Repetir Qualidade Automático
    Outros vídeos desta música
    00:00 / 00:00
    Automático

    Cifra Club Pro

    Aproveite o Cifra Club com benefícios exclusivos e sem anúncios
    Cifra Club Pro
    Aproveite o Cifra Club com benefícios exclusivos e sem anúncios
    OK