Fame

David Bowie

Composição de: Carlos Alomar / David Bowie / John Lennon
tom: D
Intro 

E|-8-H11P8------8-6-----10-8---6---8\-|
B|-9------8H9P8-8-6-------------------|
G|-10-----------8-7-8/10----7H8--878\-|
D|------------------------------------|
A|------------------------------------|
E|------------------------------------|

  Fm   Cm   Bb   Bb7
|-1--|-1--|-1--|--4--|
|-1--|-4--|-3--|--3--|
|-1--|-5--|-3--|--3--|
|-3--|-5--|-3--|--3--|
|-3--|-3--|-1--|-(1)-|
|-1--|----|----|-----|

Rhythm on an                                               Switches 
F7(#9) chord:                                              to Bb7:

|--4--|-------------------------------------------|-[8]-| |--4--|
|--4--|--4---3---4-----4-----3---4-----4---3---4--|-[9]-| |--3--|
|--2--|-[8]-[7]-[8]---[8]---[7]-[8]---[8]-[7]-[8]-|-[8]-| |--3--|
|--3--|-------------------------------------------|-[7]-| |--3--|
|-(0)-|------------rhythm varies------------------|-----| |-(1)-|
|-(1)-|-------------------------------------------|-----| |-----|

Riff:

|----------|
|----------|
|-------1~-|
|-0-1-3----|
|----------|
|----------|
Página 1 / 1

Letras e título
Acordes e artista

resetar configurações
OK