I Wish You Would

David Bowie

Composição de: Billy Boy Arnold
tom: A
Intro
Guitar I (play until chorus @ 1:02 )
e|-------------------------------------------------------------------------|
b-------------------------------------------------------------------------|
g-------------------------------------------------------------------------|
d--------7-5-7----7-7-5--7------------------------------------------------|
a------0---------0--------------------------------------------------------|
E|-------------------------------------------------------------------------|

Guitar II (first time @ 00:17 played between vocal phrases)
e|-------------------------------------------------------------------------|
b-----10-10h8----10-8-----------------------------------------------------|
g-----------------h9------------------------------------------------------|
d-------------------------------------------------------------------------|
a-------------------------------------------------------------------------|
E|-------------------------------------------------------------------------|

Chorus Both Guitars (1:02)
e|----------------------------------------------------------------------------------------|
b----------------------------------------------------------------------------------------|
g----------------------------------------------------------------------------------------|
d------7-----7-----7---pick slide|--5----7----5----7--------------------------------------|
a------7-----7-----7------------------5----7----5----7-----------------------------------|
E|-----5-----5-----5------------------3----5----3----5------------------------------------|

Chorus Both Guitars (1:12) (Repeat 4 times)
e|-------------------------------------------------------------------------|
b-------------------------------------------------------------------------|
g-------------------------------------------------------------------------|
d------7-----5------------------------------------------------------------|
a------7-----5------------------------------------------------------------|
E|-----5-----3-------------------------------------------------------------|

Chorus Both Guitars (1:31-1:39, repeat lots)
e|-------------------------------------------------------------------------|
b-------------------------------------------------------------------------|
g-------------------------------------------------------------------------|
d------7-----7-----7------------------------------------------------------|
a------7-----7-----7------------------------------------------------------|
E|-----5-----5-----5-------------------------------------------------------|

After this the song pretty much repeats, haven't gotten the solo down yet.
Página 1 / 1

Letras e título
Acordes e artista

resetar configurações
OK