Cifra Club

Aprenda

The Man Who Sold The World

David Bowie

Cifra: Principal (violão e guitarra)
tom: C
[Intro]  A  Dm  F  Dm

E|------------------------------------------|
B|------------------------------------------|
G|-2-2-2-0--2h3p2-0---2-2-2-0--2h3p2-0------| (2x)
D|------------------------------------------|
A|------------------------------------------|
E|------------------------------------------|

E|------------------------------------------|
B|------------------------------------------|
G|-2-2-2-0--2h3p2-0---2-2-2-0--2h3p2-0---2~-|
D|------------------------------------------|
A|------------------------------------------|
E|------------------------------------------|

[Primeira Parte]

                      A
We passed upon the stair
     A7               Dm
We spoke of was and when
                    A
Although i wasn't there
    A7               F
He said i was his friend
                        C
Which came as some surprise
    C7           A
I spoke into his eyes
               A7    Dm
I thought you died alone

                   C
A long long time ago

[Refrão]

E|------------------------------------------|
B|------------------------------------------|
G|------------2-3-5-----------2-3-5---------|
D|------2-3-5-----------2-3-5---------------|
A|-3-5--------------3-5---------------------|
E|------------------------------------------|

E|------------------------------------------|
B|------------------------------------------|
G|------------------------------------------|
D|-------------2-3-------3------------------|
A|-------1-3-5-----4---4----4---------------|
E|-1-3-5------------------------------------|

E|------------------------------------------|
B|------------------------------------------|
G|---------------------------2-3-5----------|
D|-------------2-3-----2-3-5----------------|
A|-------1-3-5-----3-5----------------------|
E|-1-3-5------------------------------------|

E|------------------------------------------|
B|------------------------------------------|
G|------------------------------------------|
D|-------------2-3-------3------------------|
A|-------1-3-5-----4---4----4---------------|
E|-1-3-5------------------------------------|

    C       F                         
Oh no! not me,            
    C#             F             
We never lost control              
        C       F            
You're face to face                                                                                                           
          C#
With the man who sold the world  
              
( A  Dm  F  Dm )

E|------------------------------------------|
B|------------------------------------------|
G|-2-2-2-0--2h3p2-0---2-2-2-0--2h3p2-0------| (2x)
D|------------------------------------------|
A|------------------------------------------|
E|------------------------------------------|

E|------------------------------------------|
B|------------------------------------------|
G|-2-2-2-0--2h3p2-0---2-2-2-0--2h3p2-0---2~-|
D|------------------------------------------|
A|------------------------------------------|
E|------------------------------------------|

[Segunda Parte]

                         A
I laughed and shook his hand
   A7               Dm
I made my way back home
                         A
I searched for form and land
    A7                 F
For years and years i roamed
                   C
I gazed a gazely stare
   C7                A   
At all the millions here
              A7    Dm
We must have died alone

                   C
A long long time ago

[Refrão]

E|------------------------------------------|
B|------------------------------------------|
G|------------2-3-5-----------2-3-5---------|
D|------2-3-5-----------2-3-5---------------|
A|-3-5--------------3-5---------------------|
E|------------------------------------------|

E|------------------------------------------|
B|------------------------------------------|
G|------------------------------------------|
D|-------------2-3-------3------------------|
A|-------1-3-5-----4---4----4---------------|
E|-1-3-5------------------------------------|

E|------------------------------------------|
B|------------------------------------------|
G|---------------------------2-3-5----------|
D|-------------2-3-----2-3-5----------------|
A|-------1-3-5-----3-5----------------------|
E|-1-3-5------------------------------------|

E|------------------------------------------|
B|------------------------------------------|
G|------------------------------------------|
D|-------------2-3-------3------------------|
A|-------1-3-5-----4---4----4---------------|
E|-1-3-5------------------------------------|

      C         F
Who knows, not me
    C#             F
We never lost control
        C        F
You're face, to face
          C#
With the man who sold the world

( A  Dm  F  Dm )

E|------------------------------------------|
B|------------------------------------------|
G|-2-2-2-0--2h3p2-0---2-2-2-0--2h3p2-0------| (2x)
D|------------------------------------------|
A|------------------------------------------|
E|------------------------------------------|

E|------------------------------------------|
B|------------------------------------------|
G|-2-2-2-0--2h3p2-0---2-2-2-0--2h3p2-0---2~-|
D|------------------------------------------|
A|------------------------------------------|
E|------------------------------------------|

      C         F 
Who knows, not me         
    C#             F
We never lost control
        C        F
You're face, to face
          C#
With the man who sold the world

[Final] A Dm  F  Dm 

E|------------------------------------------|
B|------------------------------------------|
G|-2-2-2-0--2h3p2-0---2-2-2-0--2h3p2-0------| (2x)
D|------------------------------------------|
A|------------------------------------------|
E|------------------------------------------|

E|------------------------------------------|
B|------------------------------------------|
G|-2-2-2-0--2h3p2-0---2-2-2-0--2h3p2-0---2~-|
D|------------------------------------------|
A|------------------------------------------|
E|------------------------------------------|
Composição de David Bowie
139.418 exibições
  • Simplificar cifra
    • ½ Tom
    • A
    • Bb
    • B
    • C
    • Db
    • D
    • Eb
    • E
    • F
    • F#
    • G
    • Ab
  • Adicionar à lista

    0 comentários

    Ver todos os comentários

    Conseguiu tocar?

    35 Tocaram 1 Ainda não

    Grave um vídeo tocando The Man Who Sold The World e nos envie!

    00:00 / 00:00
    outros vídeos desta música
    repetir qualidade Automático
    Outros vídeos desta música
    00:00 / 00:00
    Automático

    Cifra Club Pro

    Aproveite o Cifra Club com benefícios exclusivos e sem anúncios
    Cifra Club Pro
    Aproveite o Cifra Club com benefícios exclusivos e sem anúncios
    OK