Cifra Club

On An Island

David Gilmour

Cifra: Principal (violão e guitarra)
Tom: C
(intro)  Em Em Em Em

Em             Am
Remember that night
 C7M             Bm
White steps in the moonlight
Em             Am
They walked here too
            C7M                Bm     B7
Through empty playground, this ghosts' town
Em             Am           C7M          Bm
Children again, on rusting swings getting higher
Em            Am    C7M         Bm   B7
Sharing a dream, on an island, it felt right

Em             Bm
We lay side by side,
            Dm            Am
Between the moon and the tide
Cm          G          A
Mapping the stars for awhile

G/E        A/E     G/E
Let the night surround you
G/E           A/E     G/E
We're halfway to the stars,
G/E     A/E
Ebb and flow
G/E    A/E     G/E       A/E     G/E
Let it go      Feel her warmth beside you

( Em C/G Em F Em C/G Em C/G F Em C/G Em C/G Em C/G
Em Bm Dm Am Cm G A )

Em             Am
Remember that night,
   C7M           Bm
The warmth and the laughter
Em          Am
Candles burned
          C7M      Bm   B7
Though the church was deserted
Em              Am             C7M              Bm
At dawn we went down through empty streets to the harbour
Em             Am              C7M     Bm   B7
Dreamers may leave, but they're here ever after
Em       Bm Dm      Am Cm       G   A
Da da da da da da da da da da da da  uh!

G/E        A/E     G/E
Let the night surround you
G/E           A/E     G/E
We're halfway to the stars,
G/E     A/E
Ebb and flow
G/E    A/E     G/E       A/E     G/E
Let it go      Feel her warmth beside you

(solo base final) Em Am7 C7M Bm7 Em Am7 C7M Bm7 B7 (seguidas vezes)

(solo)
E|-------------------------------------------|
B|-------------------12-12h11h12--12b--12-10-|
G|------------12-14--------------------------|
D|---12/14-----------------------------------|
A|-------------------------------------------|
E|-------------------------------------------|

E|--------------------------------------|
B|--10b--10-8---7h8h7-------------------|
G|--------------------7-----------7-9b--|
D|----------------------7-7---7/9-------|
A|--------------------------------------|
E|--------------------------------------|

E|------------12--12h11h12--12h11h12----11b-|
B|---------12-------------------------------|
G|---9/12-----------------------------------|
D|------------------------------------------|
A|------------------------------------------|
E|------------------------------------------|

E|---12b------------------------|
B|-------15b--12-11-15-12h11h12-|
G|------------------------------|
D|------------------------------|
A|------------------------------|
E|------------------------------|

E|----------12-14-15--14-15--------|
B|--12/15--------------------12-13-|
G|---------------------------------|
D|---------------------------------|
A|---------------------------------|
E|---------------------------------|

E|-------12---14-15h14-----14---12-14-15-|
B|----13---------------------------------|
G|--x------------------------------------|
D|---------------------------------------|
A|---------------------------------------|
E|---------------------------------------|

E|---14h15h14------------------------12/--|
B|------------15-----------------15-------|
G|----------------14-14---14h16-----------|
D|----------------------------------------|
A|----------------------------------------|
E|----------------------------------------|

E|----7b----------------------------------------|
B|----8b-----10---11b--8------------------------|
G|---------9-------------9--7-----------------7-|
D|-----------------------------7b-5--7ha--7/9---|
A|----------------------------------------------|
E|----------------------------------------------|

E|--------------|
B|--------------|
G|-----8--------|
D|---9----------|
A|--------------|
E|--------------|

(tema da música)

E|----------------------------------------------|
B|------------------11b-11-8--13---11b-8--10b-7-|
G|----------------------------------------------|
D|---5h7-5h7-5----------------------------------|
A|----------------------------------------------|
E|----------------------------------------------|

E|-----------------------------------------------------|
B|-----------------------------------------------------|
G|-----------------------------------------7-7-9ha-9ha-|
D|------------------------------5-7--7-9---------------|
A|--5--4--5~~b0-----7-------5/7------------------------|
E|--3--2--3~~b0-----5---5h7----------------------------|

E|-----------------------------------------------|
B|----------------10-12--12h11h10h12--12h11h12-/-|
G|---9/12-----12---------------------------------|
D|-----------------------------------------------|
A|-----------------------------------------------|
E|-----------------------------------------------|

E|---12h10h12-----13h12h10h12----/--|
B|----------------------------------|
G|----------------------------------|
D|----------------------------------|
A|----------------------------------|
E|----------------------------------|

E|---------12-14-15----15h14-----------15--------------|
B|------13-------------------15--------17ha---17-15----|
G|----x-------------------------14------------------14-|
D|-----------------------------------------------------|
A|-----------------------------------------------------|
E|-----------------------------------------------------|

E|-------------------|
B|--12h10h8----------|
G|-----------9~~~~---|
D|-------------------|
A|-------------------|
E|-------------------|

obs : use delay e escute a musica para entender os tremolos que ele usa

legenda : h - ligar a nota
          / - arraste
          b - bend (levantar meio tom)
          ha - harmonico artificial
          ~~ - tremolo (alavanca)
exibições 26.273
Acordes para:

    0 comentários

    mostrar mais comentários

    Conseguiu tocar?

    4 tocaram 0 ainda não

    Grave um vídeo tocando On An Island e mande pra gente!

    00:00 / 00:00
    outros vídeos desta música
    repetir qualidade Automático
    Outros vídeos desta música
    00:00 / 00:00
    Automático
    OK