Cifra Club

Essência da Adoração

David Quinlan

Cifra: Original
exibições 21.705
Tom: A
Intro: F#m7(11)/C#  A9  E  B4 (4x) A9

Solo Intro:

Parte 1 de 2

E|-----4-----7--7/9---------------------------
B|---5-----5--------7\------------------------
G|-6-----6------------------------------------
D|--------------------------------------------
A|--------------------------------------------
E|--------------------------------------------

Parte 2 de 2

E|-----4-----7--------------------------------
B|---5-----5----10-9-7--7h9p7\5---------------
G|-6-----6------------------------------------
D|--------------------------------------------
A|--------------------------------------------
E|--------------------------------------------

Primeira parte 2x:

E                      E5(9)
  Quando a música esmorece
                 F#m7(11)/C#
E o resto desaparece
                        B4
Simplesmente a Ti me achego
E                E5(9)         F#m7(11)/C#
  Ansiando oferecer algo de valor
                        B4
Pra abençoar o teu coração

Pré-refrão:

F#m7(11)/C#                  E           B4
            Mais que uma canção eu te darei
                    F#m7(11)/C#
Pois apenas uma canção
              C#m7     B4
Não é o que queres de mim
F#m7(11)/C#                E         B4
            Mais profundo busca, Senhor
                       F#m7(11)/C#
Do que os olhos podem ver
        E/G#    B4
Queres meu coração

Refrão:

E                     B4
  Estou voltando a essência da adoração
       F#m7(11)/C#
E a essência És Tu
     A9        B4
A essência És Tu, Jesus
E                        B4
  Oh, me perdoa pelo que eu fiz dela
            F#m7(11)/C#
Quando a essência És Tu
     A9        B4
A essência És Tu, Jesus

Base Solo: F#m7(11)/C#  A9  E  B4 (2x) A9

Repete Solo Intro:

Parte 1 de 2

E|-----4-----7--7/9---------------------------
B|---5-----5--------7\------------------------
G|-6-----6------------------------------------
D|--------------------------------------------
A|--------------------------------------------
E|--------------------------------------------

Parte 2 de 2

E|-----4-----7--------------------------------
B|---5-----5----10-9-7--7h9p7\5---------------
G|-6-----6------------------------------------
D|--------------------------------------------
A|--------------------------------------------
E|--------------------------------------------

Primeira Parte - Com Variação na Letra:

E                     E5(9)
  Rei de imensurável valor
                    F#m7(11)/C#      B4
Ninguém pode expressar quanto És digno
E                          E5(9)
  Embora eu seja pobre e fraco
                  F#m7(11)/C#
Tudo que tenho é Teu
             B4
Cada fôlego meu

Pré-refrão - Com Variação:

A9                  E/G#        B4
   Mais que uma canção eu te darei
                    F#m7(11)/C#
Pois apenas uma canção
              C#m7     B4
Não é o que queres de mim
A9                C#m7      B4/D#
   Mais profundo busca, Senhor
                       F#m7(11)/C#
Do que os olhos podem ver
        E/G#    B4
Queres meu coração

Refrão 2x:

E                     B4
  Estou voltando a essência da adoração
       F#m7(11)/C#
E a essência És Tu
     A9        B4
A essência És Tu, Jesus
E                        B4
  Oh, me perdoa pelo que eu fiz dela
            F#m7(11)/C#
Quando a essência És Tu
     A9        B4
A essência És Tu, Jesus

( E  B4  F#m7(11)/C#  A9  B4 ) (2x)

Entrada Solo: Am  C9  G  D9/F#
              Am  C9  G  D9

Base Solo Principal 2x: F#m7(11)/C#  A9  E  B4/D#
                        F#m7(11)/C#  A9  E  B4

Refrão:

E                     B4
  Estou voltando a essência da adoração
       F#m7(11)/C#
E a essência És Tu
     A9        B4
A essência És Tu, Jesus
E                        B4
  Oh, me perdoa pelo que eu fiz dela
            F#m7(11)/C#
Quando a essência És Tu
     A9        B4    E  A9  E  A9
A essência És Tu, Jesus

Final: Bm7(11)  F#m7(11)/C#  E
       Bm7(11)  F#m7(11)/C#  A9  E  E/G#  A9/C# (Repete Várias Vezes)
Acordes para:
    Colaboração e revisão:
    • deivid dias
    • Rafael Freitas
    • Erasmo

    0 comentários

      mostrar mais comentários

      Conseguiu tocar?

      5tocaram0ainda não

      Grave um vídeo tocando Essência da Adoração e mande pra gente!

      00:00 / 00:00
      outros vídeos desta música
      repetirqualidadeautomática
      Outro vídeos desta música
        00:00 / 00:00
        automática
        OK