Cifra Club

Eu Sou Livre

David Quinlan

Cifra: Principal
exibições 308.999
Tom: F
[Intro]  C  F  Am  G  C


E|-----------------------------------------------------------------------|
B|-----------------------------------------------------------------------|
G|-12-12-12-10-10-10-10h12-9-------------9-10-9--------------10-9--------| 
D|------------------------------10--12-----------12-10-12----------12--10|
A|-----------------------------------------------------------------------|
E|-----------------------------------------------------------------------|


E|-----------------------------------------------------------------------|
B|-----------------------------------------------------------------------|
G|-12-12-12-10-10-10-10h12-9-------------9-10-9--------------10-9--------| 
D|------------------------------10--12-----------12-10-12----------12--10|
A|-----------------------------------------------------------------------|
E|-----------------------------------------------------------------------|


E|-----------------------------------------------------------------------|
B|-13------------13--------------13--------------------------------------|
G|-----12-10-12-----12-10-12--------12-10-12--10-10~~--------------------|
D|-----------------------------------------------------------------------|
A|-----------------------------------------------------------------------|
E|-----------------------------------------------------------------------|


C5
Os cegos verão por Ti, Os mudos cantarão
F5
Os mortos viverão E os povos te adorarão
Am
As trevas fugirão
G5
E por Ti eu grito
           C5
Eu sou livre
        C5
Livre pra correr (Livre pra correr)
        F5
Livre pra dançar (Livre pra dançar)
        Am                           G5
Livre pra viver por ti (Livre pra viver por ti)
           Csus4
Eu sou livre

[C5]

C5
ô ô ô ô (ô ô ô ô)
F5
ô ô ô ô (ô ô ô ô)
Am
ô ô ô ô (ô ô ô ô)
G5
ô ô ô ô (ô ô ô ô)
C5
Livre, livre, livre


    C5  Bb5  Ab5  Bb5  C5
E|-------------------------------------------------------------------|
B|-------------------------------------------------------------------|
G|-------------------------------------------------------------------|
D|------------------------------------------------------------3--1---|
A|-1-3-3-1-3-3-1-3-3-1-3--------------1-3-3-1-3-3-1-3-3-1-3----------|
E|-----------------------------3-2-1---------------------------------|


           Csus4        C5                   Csus4      C
Eu sou livre, Eu sou livre, Eu sou livre, Eu sou livre

[Solo]  C5  F5  Am  G5  C5
Acordes para:

    0 comentários

      mostrar mais comentários

      Conseguiu tocar?

      16tocaram0ainda não

      Grave um vídeo tocando Eu Sou Livre e mande pra gente!

      00:00 / 00:00
      outros vídeos desta música
      repetirqualidadeautomática
      Outro vídeos desta música
        00:00 / 00:00
        automática
        OK