Cifra Club

Aprenda

Bem Vindo Ao Clube

Dead Fish

Tab de baixo: Principal
INTRO
Continue tocando a nota no ritmo da batera

    HAVERÁ...
G|------------|  ...mais um retorno
D|------------|  a partir daqui?
A|------4....-|  não era o que queríamos...
E|------------|

   TUDO VAI RUIR
G|---------------------------------------------------------|
D|---------------------------------------------------------| repita esta parte
A|------------------------------------4--4-4--4-4-4--4-4-4-| até as guitarras 
E|--0-0-0-5--5-5--5-5-5--5-5-5--0-0-0----------------------| saírem com um slide


VERSO 1
Bem, esta parte é um pouquinho complicada
ouça o som para pegar o tempo correto. 
Repita até o pré refrão

                          PENSEI...
G|--------------------------------|  ...não existir nada além daqui
D|--------------------------------|  Me tornei... instável sem estar...
A|--4-4---------------------------|  Bem... pensava em engordar, envelhecer  
E|-------0-0--2-2-2-5-5-5-7-7-7-7-|  Quando... nos encontramos em


PRÉ-REFRÃO
Na segunda vez, termine em E (mi) ao inves de voltar pro A (la)
   
    NÓS...                  EM VIDA...
G|--------------------------------------------------------|
D|--------------------------------------------------------|  ...viver... aqui
A|-----------------------------4--4-4--4-4-4--4-4-4-------|
E|--5--5-5--5-5-5--5-5-5-0-0-0----------------------0-0-0-|


VERSO 2 (repete o primeiro)

Sentirei... falta de todos vocês
Sabiamos que tudo tem um fim...
Seremos homens melhores onde estivermos
O mundo é que está errado


REFRÃO
Dê um slidezinho na primeira nota pra ficar igual

                            BEM   VINDO   AO   CLUBE...
G|------------------------------------------------------|  ...celebrar o fim, seja feliz!
D|------------------------------------------------------|  Bem vindo ao clube! é tudo e é agora
A|--4---------------------------------------------------|  Toda a intensidade... que sempre quis
E|-----0--0-0--0-0--0-0-0-0--2-2-0-2--0-5--5-5--5-5-5-5-|


PONTE
Os X são as abafadas, ou apenas solte um pouco o dedo da nota

                            E O MUNDO JÁ FOI SALVO...
G|---------------------------------------------------|   ...e tudo já mudou
D|---------------------------------------------------|   o que mais por vir?
A|---------------------------------------------------|   vivos, nos resta viver
E|--7--7-X-X-7--7-7--7-7-7--5--5-X-X-5--5-5--5-5-5-5-| 


REPETE A PRIMEIRA PARTE DA INTRO


VERSO 3

         SIM,   A    VIDA    É    MAIOR    QUE    NÓS...
G|--------------------------------------------------------|  ...o que me importa se já tenho vocês e a mim
D|--------------------------------------------------------|  e se não pudermos ficar juntos e parar
A|--------------------------------------------------------|  me sentarei sozinho e farei um brinde a vocês
E|-0h2-2-x-x-2--2-2--2-2-2-2--5--5-5-x-x-5--5-5--5h7-5-5--|


REPETE O REFRÃO 2X
REPETE A PRIMEIRA PARTE DA INTRO


_______________________________________________________
Composição de Dead Fish
Colaboração e revisão:
  • Thiago Duarte
18.316 exibições

0 comentários

Mostrar mais comentários

Conseguiu tocar?

2 Tocaram 0 Ainda não

Grave um vídeo tocando Bem Vindo Ao Clube e mande pra gente!

00:00 / 00:00
outros vídeos desta música
repetir qualidade Automático
Outros vídeos desta música
00:00 / 00:00
Automático

Cifra Club Pro

Aproveite o Cifra Club com benefícios exclusivos e sem anúncios
Cifra Club Pro
Aproveite o Cifra Club com benefícios exclusivos e sem anúncios
OK