Cifra Club

Aprenda

destruir tudo de novo

Dead Fish

Cifra: Principal (violão e guitarra)
tom: Bb
Intro:
 ( C  G#  F)
E|------15-15-15-----------------------------------------------|
B|--------------------------16-16-16---------------------------|
G|----------------17-17-17------------17-17-17-15-15-17-15-----|
D|-------------------------------------------------------------|
A|-------------------------------------------------------------|
E|-------------------------------------------------------------|
 ( C  G#  F )
E|------15-16-15-----------------------------------------------|
B|--------------------------16-16-16-15-15-15------------------|
G|----------------17-17-17--------------------15-15-15-\-------|
D|-------------------------------------------------------------|
A|-------------------------------------------------------------|
E|-------------------------------------------------------------|

C C Eb G# F
É assim a vida, é movimento
C C Eb
Cercados em certezas
G# G# F
Um dia tudo pára
C C Eb
Sóbrios, ricos e frios
G# G# F
Novas regras e subversão
C C Eb G#
Formatando a verdade e "bum"
F
Aí está você
     C  Eb D Eb F  Bb C   Eb F
E|-----------------------------|
B|-----------------------------|
G|-----------------------------|
D|--5---8\7/8/10---------8/10--|
A|--3---6\5/6/8---8/10---6/8---|
E|----------------6/8----------|

G# F
A mentira que te satisfaz
    C  Eb D Eb F
E|-----------------------------|
B|-----------------------------|
G|-----------------------------|
D|--5---8\7/8/10------1--------|
A|--3---6\5/6/8---1h3---h3-1---|
E|-----------------------------|

F G
Respostas sempre tão corretas
G# F C Eb
Isso faz vender
F G
Se enganar é bem mais fácil

( Eb )

C C Eb
O ódio é uma caixa
G# G# Bb
E o amor também
C C Eb
Simples de usar
G# G# Bb
Difíceis de aprender

C C Eb
Todos sabem tudo
G# G# Bb
Menos se calar
C C Eb
Todos querem ensinar
G# G# Bb
Precisam de atenção

G# F C Eb
A mentira que te satisfaz
G#
Respostas sempre tão corretas
Isso faz vender
Se enganar é bem mais fácil
Se permitir viver tudo de novo
Se não estava bem, destruir tudo o que já fez
Já me basta esse é meu limite
Não quero ser tão cínico quanto você
E tudo vai morrer eu sei
Mas prefiro estar aqui e tentar
A mentira que te satisfaz
Respostas sempre tão corretas
Isso faz vender
Se enganar é bem mais fácil
Se permitir viver tudo de novo
Se não estava bem, destruir tudo o que já fez
Composição de Dead Fish
Colaboração e revisão:
28.343 exibições
    • ½ Tom
    • A
    • Bb
    • B
    • C
    • Db
    • D
    • Eb
    • E
    • F
    • F#
    • G
    • Ab
  • Adicionar à lista

    0 comentários

    Ver todos os comentários

    Conseguiu tocar?

    1 Tocaram 0 Ainda não

    Grave um vídeo tocando destruir tudo de novo e nos envie!

    00:00 / 00:00
    Outros vídeos desta música
    Repetir Qualidade Automático
    Outros vídeos desta música
    00:00 / 00:00
    Automático

    Cifra Club Pro

    Aproveite o Cifra Club com benefícios exclusivos e sem anúncios
    Cifra Club Pro
    Aproveite o Cifra Club com benefícios exclusivos e sem anúncios
    OK