Diploma (Noção de Nada)

Dead Fish

Composição de: Noção De Nada
intro(2x)

g|-----------------------------------------|
d|-----------------------------------------|
a|5555555555555555-888888881212121212121212|
e|-----------------------------------------|

verso(2x)

g|----------------------------------|------------------------------|
d|----------------------------------|------------------------------|
a|55-355-355-355-3-88888888-12~~10~~|55-355-355-355-3-8878---8878--|
e|----------------------------------|---------------------65-----65|

refrão

g|------------------------------------------------------------|
d|------------------------------------------------------------|
a|------------------------------------------------------------|
e|3-3-333-6-666-66-11X1-111-111--3-3-333-6-666-66-11X1-111-111|

g|--------------------------------------------------------------------|
d|--------------------------------------------------------------------|
a|--------------------------------------------------------------------|
e|paradinha-3-333-6-666-66-11X1-111-111--3-3-333-6-666-66-11X1-111-111|

verso(2x)

g|----------------------------------|------------------------------|
d|----------------------------------|------------------------------|
a|55-355-355-355-3-88888888-12~~10~~|55-355-355-355-3-8878---8878--|
e|----------------------------------|---------------------65-----65|

refrão

g|------------------------------------------------------------|
d|------------------------------------------------------------|
a|------------------------------------------------------------|
e|3-3-333-6-666-66-11X1-111-111--3-3-333-6-666-66-11X1-111-111|

g|---------------------------------------------------------|
d|---------------------------------------------------------|
a|---------------------------------------------------------|
e|paradinha-3-333-6-666-66-11X1-111-111--3-3-333-6-666-66-1|

ponte

g|-----------------------------------------------------|
d|-----------------------------------------------------|
a|----------------------------7------------3-----------|
e|5-5-5-55-553-1-1-1-11-113-5---5-55-553-1---1-1-11-111|

g|-----------------------------------------------------------|
d|-----------------------------------------------------------|
a|-----------------3-3/10-8-3--------------------3-3/10-8-3--|
e|3h5-5-5-55-555-1------------1-3h5-5-5-55-555-1------------1|

g|-------------------------------------------------------------|
d|-------------------------------------------------------------|
a|-----------------3-3/10-8-3----------------------------------|
e|3h5-5-5-55-555-1------------1-3h5-5-5-55-555-1111111111111111|

g|---------------|------|
d|---------------|---12-|
a|---------------|5/----|
e|---------------|------|

g|----------------|
d|----------------|
a|55--------------| (8x)
e|---11-33-6665-55|

refrão

g|------------------------------------------------------------|
d|------------------------------------------------------------|
a|------------------------------------------------------------|
e|3-3-333-6-666-66-11X1-111-111--3-3-333-6-666-66-11X1-111-111|

g|---------------------------------------------------------|
d|---------------------------------------------------------|
a|---------------------------------------------------------|
e|paradinha-3-333-6-666-66-11X1-111-111--3-3-333-6-666-66-1|
Página 1 / 1

Letras e título
Acordes e artista

resetar configurações
OK