Cifra Club

Aprenda

Proprietários Do Terceiro Mundo

Dead Fish

Tab de baixo: Principal
       4x
G --------|-----------------------------------------------------|
D ----10--|-10----8----8------10-10----8------------------------|
A --3-----|----10---10---10-8-------10---10-8-------------------|
E --------|-----------------------------------------------------|

2x
G --------------------------------------------------------------|
D ------5-6-----5-6-----------5-8-------------------------------|
A --3-3-----6-6---------5-6-8-----------------------------------|
E ------------------6-6-----------------------------------------|

2x
G --------------------------------------------------------------|
D --------------------------------------------------------------|
A --3-3-3-------------------------------------------------------|
E --------0-3-3-3-0-4-4-4-0-6-6-6-------------------------------|

4x
G --------------------------------------------------------------|
D --------------------------------------------------------------|
A --3-3--3-3-3--3-3-3--3-3-3------------------------------------|
E ---------------------------4-4-4-4-6-6-4--4-4-4-6-6-4---------|

G ---------------------------------10---------------------------|
D ----------------------------8-10------------------------------|
A --3-3-3-3-5-5-5-5-6-6-6-6-8-----------------------------------|
E --------------------------------------------------------------|

G --------------------------------------------------------------|
D -----------------------5---3-----------------4-5-6-5-4--------|
A --3-3--3-3-3--3-3-3--3---3-----------------------------6------|
E ------------------------------4-4-4-6-6-4-4-------------------|

G --------------------------------------------13----------------|
D -----10------------------------10-----11-13-------------------|
A --3--10---------------------3--10-----------------------------|
E -------------3-3-3-3-3-3-3------------------------------------|



_______________________________________________________
Contribuição: Caio Mac Cord(caiomaccord@hotmail.com)
Composição de Dead Fish
9.053 exibições

0 comentários

Mostrar mais comentários

Conseguiu tocar?

1 Tocaram 0 Ainda não

Grave um vídeo tocando Proprietários Do Terceiro Mundo e mande pra gente!

00:00 / 00:00
outros vídeos desta música
repetir qualidade Automático
Outros vídeos desta música
00:00 / 00:00
Automático

Cifra Club Pro

Aproveite o Cifra Club com benefícios exclusivos e sem anúncios
Cifra Club Pro
Aproveite o Cifra Club com benefícios exclusivos e sem anúncios
OK