Sangue Nas Mãos

Dead Fish

Composição de: Álvaro Dutra / Marcão Melloni / Ric Mastria / Rodrigo Lima
tom: Bb (forma dos acordes no tom de B ) Afinação: Eb Ab Db Gb Bb Eb
[Intro]

E|--------------------------------------------------------|
B|--------------------------------------------------------|
G|-9-9-9-9---8-8-8-8---13-13-13-13---6-6-6-6--------------|
D|-x-x-x-x---x-x-x-x---xx-xx-xx-xx---x-x-x-x--------------|
A|-7-7-7-7---6-6-6-6---11-11-11-11---4-4-4-4--------------|
E|--------------------------------------------------------|

E|--------------------------------------------------------|
B|--------------------------------------------------------|
G|-9-9-9-9--11-11-11-11--8-8-8-8--6-6-6-6-6-6-6--8s9------|
D|-x-x-x-x--x--x--x--x---x-x-x-x--x-x-x-x-x-x-x--x-x------|
A|-7-7-7-7--9--9--9--9---6-6-6-6--4-4-4-4-4-4-4--6s7------|
E|--------------------------------------------------------|

E|--------------------------------------------------------|
B|--------------------------------------------------------|
G|-9-9-9-9---8-8-8-8---13-13-13-13---6-6-6-6--------------|
D|-x-x-x-x---x-x-x-x---xx-xx-xx-xx---x-x-x-x--------------|
A|-7-7-7-7---6-6-6-6---11-11-11-11---4-4-4-4--------------|
E|--------------------------------------------------------|

E|--------------------------------------------------------|
B|--------------------------------------------------------|
G|-9-9-9-9--11-11-11-11--8-8-8-8--6-6-6-6-6-6-6-----------|
D|-x-x-x-x--x--x--x--x---x-x-x-x--x-x-x-x-x-x-x-----------|
A|-7-7-7-7--9--9--9--9---6-6-6-6--4-4-4-4-4-4-4-----------|
E|--------------------------------------------------------|

[Primeira Parte]

B5 C#5
      Sim, foi golpe!
B5 C#5
      Orquestrado
B5 C#5
      Por sorrisos velhos 
B5 C#5
      E apertos de mão

   C#5                F#5
E|-----0-0-0-0-0-0----------------------------|
B|-----0-0-0-0-0-0----------------------------|
G|-6---4-4-4-4-4-4----------------------------|
D|-6---6-6-6-6-6-6----4-4-4-4-----------------|
A|-4------------------4-4-4-4-----------------|
E|--------------------2-2-2-2---2~~~~~~-------|

C#5            F#5
    Rumo ao passado
B5 C#5
      A esperança das ruas 
B5 C#5
      De 2013

E|------------|
B|-5-5-5-5----|
G|-4-4-4-4----|
D|-6-6-6-6----|
A|------------|
E|------------|

B5 C#5
      Catalizou aquele 
B5 C#5             F#5    G5
      Grande acordo nacional 

E|------------------------------------------------|
B|------------------------------------------------|
G|-4-4--6-6--9-9-9-9---4-4--6-6--9-9-9-9--13--11--|
D|-x-x--x-x--x-x-x-x---x-x--x-x--x-x-x-x--xx--x---|
A|-2-2--4-4--7-7-7-7---2-2--4-4--7-7-7-7--11--9---|
E|------------------------------------------------|

E|------------------------------------------------|
B|------------------------------------------------|
G|-4-4--6-6--9-9-9-9---16--13--16--13-13-13-13-13-|
D|-x-x--x-x--x-x-x-x---xx--xx--xx--xx-xx-xx-xx-xx-|
A|-2-2--4-4--7-7-7-7---14--11--14--11-11-11-11-11-|
E|------------------------------------------------|

Com o Supremo e com tudo
Pra estancar uma sangria

A5             F#5
  Em nome da família  
A5             F#
  E de um torturador

E|----------------------------------|
B|----------------------------------|
G|----------------------------------|
D|----------------------------------|
A|----------------------------------|
E|-2h3p2p0h2h3p2p0h2h3p2p0h2h3p2----|

[Refrão]

E|--------------------------------------------------------|
B|--------------------------------------------------------|
G|-9-9-9-9---8-8-8-8---13-13-13-13---6-6-6-6--------------|
D|-x-x-x-x---x-x-x-x---xx-xx-xx-xx---x-x-x-x--------------|
A|-7-7-7-7---6-6-6-6---11-11-11-11---4-4-4-4--------------|
E|--------------------------------------------------------|

E|--------------------------------------------------------|
B|--------------------------------------------------------|
G|-9-9-9-9--11-11-11-11--8-8-8-8--6-6-6-6-6-6-6--8s9------|
D|-x-x-x-x--x--x--x--x---x-x-x-x--x-x-x-x-x-x-x--x-x------|
A|-7-7-7-7--9--9--9--9---6-6-6-6--4-4-4-4-4-4-4--6s7------|
E|--------------------------------------------------------|

E|--------------------------------------------------------|
B|--------------------------------------------------------|
G|-9-9-9-9---8-8-8-8---13-13-13-13---6-6-6-6--------------|
D|-x-x-x-x---x-x-x-x---xx-xx-xx-xx---x-x-x-x--------------|
A|-7-7-7-7---6-6-6-6---11-11-11-11---4-4-4-4--------------|
E|--------------------------------------------------------|

E|--------------------------------------------------------|
B|--------------------------------------------------------|
G|-9-9-9-9--11-11-11-11--8-8-8-8--6-6-6-6-6-6-6-6-6-6-6---|
D|-x-x-x-x--x--x--x--x---x-x-x-x--x-x-x-x-x-x-x-x-x-x-x---|
A|-7-7-7-7--9--9--9--9---6-6-6-6--4-4-4-4-4-4-4-4-4-4-4---|
E|--------------------------------------------------------|

Motivo de vergonha, indignação
Os gritos que ecoam das janelas
O lado certo da história
Não tem sangue nas mãos

[Segunda Parte]

E|---------------------------|
B|---------------------------|
G|-4---6-6-6-6-6-6-6-6-6-----|
D|-x---x-x-x-x-x-x-x-x-x-----|
A|-2---4-4-4-4-4-4-4-4-4-----|
E|---------------------------|

Uma jovem democracia
Acorrentada nos porões
               A5
Pra que velhos ratos
        F#5
Possam voltar a reinar

  B5 C#5                   B5 C#5
E|-----------------------------------------------------|
B|-----------------------------------------------------|
G|-----------------------------------------------------|
D|-4s6--6-xxx-6-xxx-6-xx6---4s6--6--------6---------6--|
A|-2s4--4-xxx-4-xxx-4-xx4---2s4--4-444444-4--444444-4--|
E|-----------------------------------------------------|

Comprando a justiça
Não há corrupção
Entre brancos e ricos
                  A5
Pois ninguém é julgado
          F#
E a vida segue

E|----------------------------------|
B|----------------------------------|
G|----------------------------------|
D|----------------------------------|
A|----------------------------------|
E|-2h3p2p0h2h3p2p0h2h3p2p0h2h3p2----|


[Refrão]

E|--------------------------------------------------------|
B|--------------------------------------------------------|
G|-9-9-9-9---8-8-8-8---13-13-13-13---6-6-6-6--------------|
D|-x-x-x-x---x-x-x-x---xx-xx-xx-xx---x-x-x-x--------------|
A|-7-7-7-7---6-6-6-6---11-11-11-11---4-4-4-4--------------|
E|--------------------------------------------------------|

E|--------------------------------------------------------|
B|--------------------------------------------------------|
G|-9-9-9-9--11-11-11-11--8-8-8-8--6-6-6-6-6-6-6--8s9------|
D|-x-x-x-x--x--x--x--x---x-x-x-x--x-x-x-x-x-x-x--x-x------|
A|-7-7-7-7--9--9--9--9---6-6-6-6--4-4-4-4-4-4-4--6s7------|
E|--------------------------------------------------------|

E|--------------------------------------------------------|
B|--------------------------------------------------------|
G|-9-9-9-9---8-8-8-8---13-13-13-13---6-6-6-6--------------|
D|-x-x-x-x---x-x-x-x---xx-xx-xx-xx---x-x-x-x--------------|
A|-7-7-7-7---6-6-6-6---11-11-11-11---4-4-4-4--------------|
E|--------------------------------------------------------|

E|--------------------------------------------------------|
B|--------------------------------------------------------|
G|-9-9-9-9--11-11-11-11--8-8-8-8--6-6-6-6-6-6-6-6-6-6-6---|
D|-x-x-x-x--x--x--x--x---x-x-x-x--x-x-x-x-x-x-x-x-x-x-x---|
A|-7-7-7-7--9--9--9--9---6-6-6-6--4-4-4-4-4-4-4-4-4-4-4---|
E|--------------------------------------------------------|

Motivo de vergonha, indignação
A cumplicidade das panelas
O lado certo da história
Não tem sangue nas mãos

[Verso 03]

E|-------------------------------------------|
B|-------------------------------------------|
G|-9-9-9-9--11-11-11-11--13-13-13-13-13-13---|
D|-x-x-x-x--x--x--x--x---xx-xx-xx-xx-xx-xx---|
A|-7-7-7-7--9--9--9--9---11-11-11-11-11-11---|
E|-0-0-0-0--0--0--0--0---0--0--0--0--0--0----|

E|-------------------------------------------|
B|-------------------------------------------|
G|-6s8--8-8-8-8-8-8--6-6-6-6-6-6-------------|
D|-x-x--x-x-x-x-x-x--x-x-x-x-x-x---(2x)------|
A|-4s6--6-6-6-6-6-6--4-4-4-4-4-4-------------|
E|-------------------------------------------|

Em cada casa, um ponto cego, um cidadão se levantou
Abriu a porta do armário e o preconceito se espalhou
Quando o passado volta à moda em nome de um torturador
                                          A5
O sonho médio é vestir a carapuça do opressor
E achar que tem poder


E|---------------------------------------------------|
B|---------------------------------------------------|
G|-9-9-9-9----11-11-11-11----13-13-13-13-13-13---4---|
D|-x-x-x-x----x--x--x--x-----xx-xx-xx-xx-xx-xx---x---|
A|-7-7-7-7----9--9--9--9-----11-11-11-11-11-11---2---|
E|-0-0-0-0----0--0--0--0-----0--0--0--0--0--0--------|

Buscando um inimigo
A5
Fomenta a paranoia e o faz pra confundir

E|---------------------------------------------------|
B|---------------------------------------------------|
G|-9-9-9-9----11-11-11-11----13-13-13-13-13-13---4---|
D|-x-x-x-x----x--x--x--x-----xx-xx-xx-xx-xx-xx---x---|
A|-7-7-7-7----9--9--9--9-----11-11-11-11-11-11---2---|
E|-0-0-0-0----0--0--0--0-----0--0--0--0--0--0--------| |

Buscando um inimigo
A5
Aponta a arma pra si
                F#5
E é assim que começa

  F#5
E|---------0~~-------------------------------------|
B|------------0~~----------------------------------|
G|---------------3~~-------------------------------|
D|-4~~~~-------------------------------------------|
A|-4~~~~-------------------------------------------|
E|-2~~~~-------------------------------------------|

[Refrão]

E|--------------------------------------------------------|
B|--------------------------------------------------------|
G|-9-9-9-9---8-8-8-8---13-13-13-13---6-6-6-6--------------|
D|-x-x-x-x---x-x-x-x---xx-xx-xx-xx---x-x-x-x--------------|
A|-7-7-7-7---6-6-6-6---11-11-11-11---4-4-4-4--------------|
E|--------------------------------------------------------|

E|--------------------------------------------------------|
B|--------------------------------------------------------|
G|-9-9-9-9--11-11-11-11--8-8-8-8--6-6-6-6-6-6-6--8s9------|
D|-x-x-x-x--x--x--x--x---x-x-x-x--x-x-x-x-x-x-x--x-x------|
A|-7-7-7-7--9--9--9--9---6-6-6-6--4-4-4-4-4-4-4--6s7------|
E|--------------------------------------------------------|

E|--------------------------------------------------------|
B|--------------------------------------------------------|
G|-9-9-9-9---8-8-8-8---13-13-13-13---6-6-6-6--------------|
D|-x-x-x-x---x-x-x-x---xx-xx-xx-xx---x-x-x-x--------------|
A|-7-7-7-7---6-6-6-6---11-11-11-11---4-4-4-4--------------|
E|--------------------------------------------------------|

E|--------------------------------------------------------|
B|--------------------------------------------------------|
G|-9-9-9-9--11-11-11-11--8-8-8-8--6-6-6-6-6-6-6-6-6-6-6---|
D|-x-x-x-x--x--x--x--x---x-x-x-x--x-x-x-x-x-x-x-x-x-x-x---|
A|-7-7-7-7--9--9--9--9---6-6-6-6--4-4-4-4-4-4-4-4-4-4-4---|
E|--------------------------------------------------------|

Motivo de vergonha, indignação
Os gritos que ecoam das janelas
O lado certo da história
Não tem sangue nas mãos

[Final]

E|----------------------------------------|
B|----------------------------------------|
G|-9-9-9-9---13-13-13-13---16-16-16-16----|
D|-x-x-x-x---xx-xx-xx-xx---xx-xx-xx-xx----|
A|-7-7-7-7---11-11-11-11---14-14-14-14----|
E|-0-0-0-0--------------------------------|

  B5    C#5
E|------------------------|
B|------------------------|
G|------------------------|
D|-9-9--11----------------|
A|-9-9--11----------------|
E|-7-7--9-----------------|
Página 1 / 1

Letras e título
Acordes e artista

resetar configurações
OK