Cifra Club

I Kill Children

Dead Kennedys

Tab de baixo: Principal
Tabbed By : Xcrimson_ghostX
e-mail: *

Tuning: standard

Verse (enters after guitar):
“ I kill children...”
G|-----------------------------------------------------------|
D|-----------------------------------------------------------|
A|---2-2-2-2--4-4-4-4---2-2-2-2--4-4-4-4---2-2-2-2--4-4-4-4--|
E|-----------------------------------------------------------|

End of verse:
G|-----------------------------|
D|2-2--2-------2---------------|
A|--------2-3-----2-3-4-4-4-4--|
E|-----------------------------|

G|--------------------------------------------------------|
D|-2-2--222-------2--------------2-2-2-------------2------|
A|-----------2-3-----2-3-4-4-4-4-------4-4-4-4------------|
E|--------------------------------------------------------|

Bass solo:
G|-----------------------|
D|-----------------------|
A|5-5-5-0-0------2-2--5--| repeat 3 times
E|----------3-3----------|

Then
G|-----------------------|
D|-----------------------|
A|5-5-5-0-0-----0--------|
E|-----------3-----------|

“Ever wanted to die?...” part
G|-------------------------------------------------|
D|-------------------------------------------------|
A|-----0-0-1-1-3-------0-0-1-1-3------0-0-1-1-3----|
E|3-3-------------3-3-------------3-3--------------|

G|-------------------------------------------------|
D|-------------------------------------------------|
A|-----2-2-3-3-5------2-2-3-3-5-------2-2-3-3-5----|
E|5-5-------------5-5------------5-5---------------|

G|-----------------------------------|
D|-----------------------------------|
A|-8-8-8-8---11-11-11-11-11----------|
E|-----------------------------------|

“...can’t har1dly wait for yours” part
G|----------------------------------------------------------------------|
D|2-2-2-----2-----2-2-2------2-----2-2-2-----2-----2-2-2----------------|
A|------2-3---2-3--------2-3---2-3-------2-3---2-3----------------------|
E|----------------------------------------------------------------------|

Ends with
A|---4--------|

| /  slide up
| \  slide down
| h  hammer-on
| p  pull-off
| ~  vibrato
| +  harmonic
| x  Mute note
===============================================================================
exibições 601

0 comentários

mostrar mais comentários

Conseguiu tocar?

0 tocaram 0 ainda não

Grave um vídeo tocando I Kill Children e mande pra gente!

00:00 / 00:00
outros vídeos desta música
repetir qualidade Automático
Outros vídeos desta música
00:00 / 00:00
Automático
OK