Cifra Club

Too Drunk To Fuck

Dead Kennedys

Cifra: Principal (violão e guitarra)
tom: A
            e| --------------------------------
            B| --------------------------------
            G| --------------------------------
 riff A:    D| --------0-1-0---------0-----0---
            A| 0---3-0-------3-0-0-3-----3---3-
            E| --------------------------------  

            e| --------------------------------
            B| --------------------------------
            G| --------------------------------
 riff B:    D| ----------------0---0---1---0---
            A| 3---3---3---3-------------------
            E| --------------------------------

            e| ------------------------
            B| ------------------------
            G| ------------------------
 riff A2:   D| --------0-1-0---------0-   
            A| 0---3-0-------3-0-0-3---
            E| ------------------------

            e| ----------------
            B| ----------------
            G| ----------------
 riff C:    D| ---------------- 
            A| ----------------
            E| 5---5---3-5---3-

            e| --------------------------------
            B| --------------------------------
            G| --------------------------------
 riff D:    D| --------2-3-2---------2-----2---
            A| 2---5-2-------5-2-2-5-----5---5-
            E| --------------------------------

            e| --------------------------------
            B| --------------------------------
            G| --------------------------------
 riff E:    D| ----------------2---2---3---2---
            A| 5---5---5---5-------------------
            E| --------------------------------

            e| ------------------------
            B| ------------------------
            G| ------------------------
 riff D2:   D| --------2-3-2---------2-
            A| 2---5-2-------5-2-2-5---
            E| ------------------------

(intro:)       riff A   (x2)

(verse:)       riff A   (x4)  (sing on third)
               riff B   
               riff A
               riff A   (x2)
               riff B
               riff A2

               (chords:)               --G-G-G-

               E-------------------------G-G-G-           
                      Too drunk to fuck 
               E-------------------------G-G-G-
                      Too drunk to fuck
               E---------G-G-G-E---------G-G-G-
                 Too drunk,       to fuck
               E---E---F---F---F#--F#--C---C---
               I'm too drunk, too drunk, too drunk to fuck

(repeat verse) 

(2nd verse)

(break:)       C---------------C---------------
               C---------------C---------------
               C-------D-------D#------D--D#-D-
               D#--C---------------------------
               C-------D-------D#------D--D#-D-
               C-------------------------------

               riff C   (x3)
               D-----D#----C--- 
               riff C   (x2)
               D-----C-----a-g-c-a-------G-G-G-    (a-g-c-a- with a single string)
               E-------------------------G-G-G-
                 Too drunk....
               E-------------------------G-G-G-
               E---------G-G-G-E---------G-G-G-
               E---E---F---F---F#--F#--C---C---

               I'm sick soft gooey and cold, too drunk to fuck

               riff A   (x2)

(verse:)       riff D   (x4)
               riff E  
               riff D
               riff D   (x2)
               riff E
               riff D2

                                       --A-A-A-
               F#------------------------A-A-A-
                  Too drunk...
               F#------------------------A-A-A-
               F#--------A-A-A-F#--------A-A-A-
               F#--F#--G---G---G#--G#--D---D---   (x3)

               D-------C-------D-------F--D-F--   (x3)
                                       Yeah, yeah
               D-------
00:00 / 00:00
Outros vídeos desta música
Repetir
Outros vídeos desta música
Composição de Jello Biafra
Colaboração e revisão:
  • Taino Vieira
6.246 exibições
    • ½ Tom
    • A
    • Bb
    • B
    • C
    • Db
    • D
    • Eb
    • E
    • F
    • F#
    • G
    • Ab
  • Adicionar à lista

    0 comentários

    Ver todos os comentários

    Entre para oCifra Club PRO

    Tenha acesso a benefícios exclusivos no App e no Site

    • Chega de anúncios

    • Prioridade de compra em lançamentos

    • Mais recursos no app do Afinador

    • Atendimento Prioritário

    • Descontos nos produtos Cifra Club

    • Ajude a produzir mais conteúdo

    00:00 / 00:00

    Cifra Club Pro

    Aproveite o Cifra Club com benefícios exclusivos e sem anúncios
    Cifra Club Pro
    Aproveite o Cifra Club com benefícios exclusivos e sem anúncios
    OK