Cifra Club

Flight Of The Rat

Deep Purple

Tab de baixo: Principal
                     1_____  2___
|------|------|-----|------|-----|-----------|---------------|-----------------------|----------------|
|------|------|-----|-----*|-----|-----------|---------------|-----------------------|----------------|
|--12--|--12--|--0--|-----*|--0--|--12---12--|--12---10---9--|--12---12--12--12--12--|---------10--9--|
|------|------|-----|--12--|-----|-----------|---------------|-----------------------|--9--12---------|

   spread...                           rat...                              message...
   mystic...                           all...                              memories...
|---------------|-------------------|---------------|-------------------|---------------|-------------------|
|---------------|-------------------|---------------|-------------------|---------------|-------------------|
|--12---12--12--|--12--12---10---9--|--12---12--12--|--12--12---10---9--|--12---12--12--|--12--12---10---9--|
|---------------|-------------------|---------------|-------------------|---------------|-------------------|

   misery...
   saddest...
|-----------------|----------------|---------------|-----------------|
|-----------------|---------5---4--|--7---7--7--7--|----------5---4--|
|--12------4---5--|--7--7----------|---------------|--4---7----------|
|-------5---------|----------------|---------------|-----------------|

                                     once I...
                                     I was...
                                     shaking...
|------------------|--------------|------------|----------------|
|--7---7--7--7--7--|--------5--4--|--7---7--7--|--7--7---5---4--|
|------------------|--4--7--------|------------|----------------|
|------------------|--------------|------------|----------------|

|------------|----------------|------------|----------------|---------------|
|--7---7--7--|--7--7---5---4--|--7---7--7--|--7--7---5---4--|--7------------|
|------------|----------------|------------|----------------|--------4---5--|
|------------|----------------|------------|----------------|------5--------|

|----------------|---------------|-----------------|------------|-----------------|------------|-----------------|
|---------5---4--|--7---7--7--7--|----------5---4--|------------|-----------------|------------|-----------------|
|--7--7----------|---------------|--4---7----------|--7---7--7--|--7---7---5---4--|--7---7--7--|--7---7---5---4--|
|----------------|---------------|-----------------|------------|-----------------|------------|-----------------|

|------------|-----------------|------------|-----------------|-----|para o coda 2
|------------|-----------------|------------|-----------------|-----|
|--7---7--7--|--7---7---5---4--|--7---7--7--|--7---7---5---4--|--5--|
|------------|-----------------|------------|-----------------|-----|

|-----|
|-----|
|--7--|
|-----|

|------9--|------------|-------------|------------------|-----------------------|
|---------|--7---7--7--|--7---5---4--|--7---7--7--7--7--|--7--7--7--7--5--5--4--|
|--7------|------------|-------------|------------------|-----------------------|
|---------|------------|-------------|------------------|-----------------------|

(coda 1)
|--------------|
|--------2/14--|
|--7-----------|
|--------------|

|------------|------------------|------------------|--------------------|------------|
|*-9---9--9--|--9--9---------7--|--9---9--9--9--9--|--------7--------7--|--9---9--9--|
|*-----------|---------7--9-----|------------------|--7--9-----7--9-----|------------|
|------------|------------------|------------------|--------------------|------------|

                                           1________________   2_______
|----------------|-----------------------|-------------------|---------------------|-----|-----|
|--7-------------|--7--9--9--9--9--9--9--|--------7---7---8-*|--------7---------7--|-----|--9--|
|-----9---7------|-----------------------|--7--9------------*|--7--9------7--9-----|--7--|-----|
|-------------9--|-----------------------|-------------------|---------------------|-----|-----|

|-----|--------|------|------|------|------------|-------------|---------------|-------------------|
|--5--|--5/17--|--19--|--19--|--14--|--7---7--7--|--7---5---4--|--7---7--7--7--|------------5---4--|
|-----|--------|------|------|------|------------|-------------|---------------|--4--5--7----------|
|-----|--------|------|------|------|------------|-------------|---------------|-------------------|

   speak about...                     times...                           once I was...
|-----------------|----------------|-----------------|----------------|-----------------|----------------|
|--7---7--7-------|--7--7---5---4--|--7---7--7-------|--7--7---5---4--|--7---7--7-------|--7--7---5---4--|
|-----------------|----------------|-----------------|----------------|-----------------|----------------|
|-----------------|----------------|-----------------|----------------|-----------------|----------------|

   couldn't...
|------------------|----------------|------------------|---------------------|---------------|
|--7---------------|---------5---4--|--7---7--7--7--7--|------------5--5--4--|--7---7--7--7--|
|---------4--4--5--|--7--7----------|------------------|--4--4--7------------|---------------|
|------5-----------|----------------|------------------|---------------------|---------------|

                         shaking...                    nothing..                     walking..
|---------------------|------------|----------------|------------|----------------|------------|----------------|
|------------5--5--4--|--7---7--7--|--7--7---5---4--|--7---7--7--|--7--7---5---4--|--7---7--7--|--7--7---5---4--|
|--4--4--7------------|------------|----------------|------------|----------------|------------|----------------|
|---------------------|------------|----------------|------------|----------------|------------|----------------|

   who...
|------------------|------------------|---------------------|-------------------|
|--7---------------|---------5--5--4--|--7---7--7--7--7--7--|------------5---4--|
|---------4--4--5--|--7--7------------|---------------------|--4--4--7----------|
|------5-----------|------------------|---------------------|-------------------|

                                       free             and I...
|---------------|-------------------|---------------|-------------------|
|---------------|-------------------|---------------|-------------------|
|--7---7--7--7--|--7--7--7---5---4--|--7---7--7--7--|--7--7--7---5---4--|
|---------------|-------------------|---------------|-------------------|

                                                                           me
|---------------|-------------------|---------------|-------------------|------|-----|--5--------|
|---------------|-------------------|---------------|-------------------|------|-----|--------7--|
|--7---7--7--7--|--7--7--7---5---4--|--7---7--7--7--|--7--7--7---5---4--|------|--7--|-----------|
|---------------|-------------------|---------------|-------------------|--5---|-----|-----------|

|------------|----------------|------------|----------------|---------------|-------------------|
|------------|----------------|------------|--2--4---2---0--|---------------|--------0---2---4--|
|--2---2--2--|--2--2---0---1--|--2---2--2--|----------------|--2---2--2--2--|--0--2-------------|
|------------|----------------|------------|----------------|---------------|-------------------|

|---------------|-------------------|---------------|-------------------|---------------|
|---------------|------------2---0--|---------------|--------0---2---4--|---------------|
|--2---2--2--2--|--2--2--2----------|--2---2--2--2--|--0--2-------------|--2---2--2--2--|
|---------------|-------------------|---------------|-------------------|---------------|

|--4--2-------------|----------------|---------------------|------------|----------------|
|--------4---2---0--|----------1--1--|--0--2--2--2--4---2--|------------|---------2---0--|
|-------------------|--2---2---------|---------------------|--2---2--2--|--2--2----------|
|-------------------|----------------|---------------------|------------|----------------|

|---------------|--------2---2---4--|---------------|--4--4---2--2-----|
|---------------|--2--4-------------|---------------|---------------4--|
|--2---2--2--2--|-------------------|--2---2--2--2--|------------------|
|---------------|-------------------|---------------|------------------|

|---------------|-------------------|---------------|-------------------|
|---------------|--2--4--4---2---0--|---------------|--------0---2---4--|
|--2---2--2--2--|-------------------|--2---2--2--2--|--0--2-------------|
|---------------|-------------------|---------------|-------------------|

|---------4---4--|--4--2-------------|---------------|--------2---------2--|
|----------------|--------4---2---0--|---------------|--2--4------2--4-----|
|--2---2---------|-------------------|--2---2--2--2--|---------------------|
|----------------|-------------------|---------------|---------------------|

|--4-----4--4--4--4--|--4--2---------------|------4--4--4--4--4--|-------------------|
|--------------------|--------4--4--2---4--|---------------------|--2--2--4---2---0--|
|--------------------|---------------------|--2------------------|-------------------|
|--------------------|---------------------|---------------------|-------------------|

|---------------|-----------------|---------------|----------------|
|---------------|-----------------|------0--0--2--|--4--4---2---0--|
|--2---2--2--2--|--2---2---0---1--|--2------------|----------------|
|---------------|-----------------|---------------|----------------|

|------------------|----------------|---------------|-------------------|
|---------0--0--2--|--4--4---2---0--|---------------|-------------------|
|--2---2-----------|----------------|--2---2--2--2--|--2--2--2---0---1--|
|------------------|----------------|---------------|-------------------|

|---------------|-------------------|---------------|-------------------|
|---------------|-------------------|---------------|-----4--4---2---0--|
|--2---2--2--2--|--2--2--2---0---1--|--2---2--2--2--|--2----------------|
|---------------|-------------------|---------------|-------------------|

|---------------|------------------|---------------|---------------------|
|---------------|--0--0---2--2--4--|---------------|---------------------|
|--2---2--2--2--|------------------|--2---2--2--2--|--2---2--2--2--2--4--|
|---------------|------------------|---------------|---------------------|

|---------------|-----------------------|-------------------|
|*--------------|--------------4--5--7--|-------------------|
|*-5---5--5--5--|--5--5--5--5-----------|--4-----4---4---4--|
|---------------|-----------------------|-------------------|

|-----------------------|-------------------|---------------------|
|--------------3--4--6--|-------------------|------------2--3--5--|
|--4--4--4--4-----------|--3-----3---3---3--|--3--3--3------------|
|-----------------------|-------------------|---------------------|

                  1________________________  2_____________
|---------------|--------------------------|-----------------------|----------------|-------------|
|---------------|-------------------------*|-----------------------|----------------|-------------|
|--2---2--2--2--|--2--2--2--2--2--2--3--4-*|--2--2--2--2--2--2--2--|--1---2--2---3--|--4---5---6--|
|---------------|--------------------------|-----------------------|----------------|-------------|

|------9------------------|----------------------|------9-----------------|-------------------------|
|-------------------------|--------------7-------|------------------9-----|--9-----10--9--7---------|
|--7------7--7--7------7--|--7--7--7--7------10--|--7------7--7--7-----7--|---------------------10--|
|------------------10-----|----------------------|------------------------|-------------------------|

|------9---------------|-----------------|-------------------|--------------------|
|----------------------|---------7-------|-------------9-----|--9---------7-------|
|--7------7--7--7---7--|--7---7------10--|--7---7---7-----7--|-----7---7------10--|
|----------------------|-----------------|-------------------|--------------------|

|----------------------|-------------------|-------------------|----------------|
|------7--9-----9------|-----9-----7-------|----------------7--|--9-----7-------|
|--7---------7------7--|--7-----7------10--|--7---7---7--7-----|------------10--|
|----------------------|-------------------|-------------------|----------------|

|------9---------------|--------------------|------9------------|--9--7--------------|
|----------------------|-------------7---9--|-------------------|--------9---7-------|
|--7------7---7--7--7--|--7--7--10----------|--7------7---7--7--|----------------10--|
|----------------------|--------------------|-------------------|--------------------|

|------9------------|-----------------|------9-----------|--------------------7--|
|-------------------|-----------------|------------------|--------------7--9-----|
|--7------7---7--7--|--7--7---7---10--|--7------7--7--7--|--7--7--7--7-----------|
|-------------------|-----------------|------------------|-----------------------|

|-----------------------|----------------------|-----------------------|--------------------|
|-----------------------|-------------------7--|--------------------7--|--7---7--7--7-------|
|--7-----7-----7--7--7--|--7--7--7--7--10------|--7-----7-----7--7-----|----------------10--|
|-----------------------|----------------------|-----------------------|--------------------|

|-------------------|-----------------|---------------|----------------|-------------------|
|-------------------|-----------------|---------------|-------------5--|-------------------|
|--7---7--7---7--7--|--5-----5--5--6--|--7---7--7--7--|--7---7--5------|--7---7---7--7--7--|
|-------------------|-----------------|---------------|----------------|-------------------|

|---------------------|--------------------|----------------------|---------------------|
|--------5---------5--|--------------------|--9--9--9--9--7-------|---------------------|
|--5--5------5--5-----|--7-----7-----7--7--|------------------10--|--7-----10-----7--7--|
|---------------------|--------------------|----------------------|---------------------|

|----------------------|--------------------------|-------------------------|
|--------------7-------|--------------------------|--------------7---7------|
|--9--7--7--7------10--|--7--7--7--7--7--7--7--7--|--7--7--7--7---------10--|
|----------------------|--------------------------|-------------------------|

|----------------------|-----------------------|----------------------|-----------------------|
|----------------------|---------------7-------|----------------------|---------------7-------|
|--7-------7--7--7--7--|------7--7--7------10--|--7-------7--7--7--7--|------7--7--7------10--|
|------10--------------|--10-------------------|------10--------------|--10-------------------|

|---------------------|----------------------|---------------------|----------------------|
|---------------------|--------------7-------|---------------------|--------------7-------|
|--7---7--7--7--7--7--|--7--7--7--7------10--|--7---7--7--7--7--7--|--7--7--7--7------10--|
|---------------------|----------------------|---------------------|----------------------|

|---------------------|----------------------|---------------------|----------------------|
|---------------------|--------------7-------|---------------------|--------------7-------|
|--7---7--7--7--7--7--|--7--7--7--7------10--|--7---7--7--7--7--7--|--7--7--7--7------10--|
|---------------------|----------------------|---------------------|----------------------|

|-----|----|-----|-----|-----|-----|-----|-----|-----|-----|-----|-----|-----|-----|-----|-----|-----|-----|
|-----|----|-----|-----|-----|-----|-----|-----|-----|-----|-----|-----|-----|-----|-----|-----|-----|-----|
|--7--|----|-----|-----|-----|-----|-----|-----|-----|-----|-----|-----|-----|-----|-----|-----|-----|-----|
|-----|----|-----|-----|-----|-----|-----|-----|-----|-----|-----|-----|-----|-----|-----|-----|-----|-----|

                                                                  1____
|----|-----|-----|-----|-----|-----|-----|-----|-----|-----|-----|-----|
|----|-----|-----|-----|-----|-----|-----|-----|*----|-----|-----|----*|
|----|-----|-----|-----|-----|-----|-----|-----|*----|-----|-----|--7-*|
|----|-----|-----|-----|-----|-----|-----|-----|-----|-----|-----|-----|

 2_________
|-----------|-------------------|-------------------|-------------------|---------------------|
|-----------|-------------------|-------------------|-------------------|---------------------|
|--0-----0--|--12---12--12--12--|--12--12---10---9--|--12---12--12--12--|-------------10---9--|
|-----------|-------------------|-------------------|-------------------|--9--9--12-----------|

(coda 2)
|-----|-----|-----|-----|-----|-----|-----|
|-----|-----|-----|-----|-----|-----|-----|
|--7--|-----|-----|-----|-----|-----|-----|
|-----|-----|-----|-----|-----|-----|-----|

|-----|-----|-----|-----|-----|-----|-----|-----|
|-----|-----|-----|-----|-----|-----|-----|-----|
|-----|-----|-----|-----|-----|-----|-----|-----|
|-----|-----|-----|-----|-----|-----|-----|-----|

|-----|-----|-----|-----|------|----|-----|-----|
|-----|-----|-----|-----|------|----|-----|-----|
|-----|-----|-----|-----|--12--|----|-----|-----|
|-----|-----|-----|-----|------|----|-----|-----|

|--14--14--14--14--14--14--14--14--|--14--14--14--14--14--14--14--14--|
|----------------------------------|----------------------------------|
|----------------------------------|----------------------------------|
|----------------------------------|----------------------------------|

|--14--14--14--14--14--14--14--14--14--14--|--14--14--14--14--14--14--14--12------|
|------------------------------------------|----------------------------------14--|
|------------------------------------------|--------------------------------------|
|------------------------------------------|--------------------------------------|

|-------------------|-----------------------|-----------------------|------------------------|
|*------------------|-----------------------|-----------------------|------------------------|
|*-12---12--12--12--|--12--12--12---10---9--|--12---12--12--12--12--|--------12---10--10--9--|
|-------------------|-----------------------|-----------------------|--9--9------------------|

                                                                  1____________________
|-------------------|-----------------------|-------------------|-----------------------|
|-------------------|-----------------------|-------------------|----------------------*|
|--12---12--12--12--|--12--12--12---10---9--|--12---12--12--12--|--12--12--12---10---9-*|
|-------------------|-----------------------|-------------------|-----------------------|

 2_________                            stay away
|-----------------------|-----|-----|-------------|-----|-----|-----|-----|-----|-----|-----|
|-----------------------|-----|-----|-------------|--3--|-----|-----|-----|-----|-----|-----|
|--12--12--12---10---9--|--7--|--5--|--5----------|-----|-----|-----|-----|-----|-----|-----|
|-----------------------|-----|-----|-------------|-----|-----|-----|-----|-----|-----|-----|

|-----|-----|-----|-----|-----|-----|-----|-----|-----|-----|-----|------------------------|------------|
|-----|-----|-----|-----|-----|-----|-----|-----|-----|--5--|--5--|--7--------------7------|--5---------|
|-----|-----|-----|-----|-----|-----|-----|-----|-----|-----|-----|-----------4--7------4--|---------7--|
|-----|-----|-----|-----|-----|-----|-----|-----|-----|-----|-----|--------5---------------|------5-----|

|-----|-----|-----|
|-----|-----|-----|
|-----|-----|-----|
|--5--|--5--|-----|
00:00 / 00:00
Outros vídeos desta música
Repetir
Outros vídeos desta música
Composição de Deep Purple / Ian Gillan / Ian Paice / Jon Lord / Ritchie Blackmore / Roger Glover
Colaboração e revisão:
  • valdir júnior
158 exibições

0 comentários

Ver todos os comentários

Conseguiu tocar?

0 Tocaram 0 Ainda não

Grave um vídeo tocando Flight Of The Rat e nos envie!

Entre para oCifra Club PRO

Tenha acesso a benefícios exclusivos no App e no Site

  • Chega de anúncios

  • Prioridade de compra em lançamentos

  • Mais recursos no app do Afinador

  • Atendimento Prioritário

  • Descontos nos produtos Cifra Club

  • Ajude a produzir mais conteúdo

00:00 / 00:00

Cifra Club Pro

Aproveite o Cifra Club com benefícios exclusivos e sem anúncios
Cifra Club Pro
Aproveite o Cifra Club com benefícios exclusivos e sem anúncios
OK