Notificações Amigos pendentes

      Deep Purple

      Soldier Of Fortune

      55.717 exibições
      Tom: A#
      Introdução: Gm  Dm  C  Gm
      
      (Violão)
      
      
         Gm               Dm
      E|-------3-5-6/10~--8h10p8-6--5h6p5--3-5~---|
      B|-----3------------------------------------|
      G|---3--------------------------------------|
      D|-5----------------------------------------|
      A|------------------------------------------|
      E|------------------------------------------|
      
      
          C                       Gm
      E|--8--6h8p6\5--------------6p5-------------|
      B|--8----------8~---5--8~-------8~----------|
      G|--9--------------------------------7~-----|
      D|-10---------------------------------------|
      A|------------------------------------------|
      E|------------------------------------------|
      
      
      (Guitarra)
      
      
         Gm              Dm
      E|------------------------------------------|
      B|---------3---------------6----------------|
      G|-------3---3---------7-----7--------------|
      D|-----5-------5-----7---7-----7------------|
      A|---5-----------5-5-------------5----------|
      E|-3----------------------------------------|
      
      
         C               Gm
      E|------------------------------------------|
      B|---------5---------------3----------------|
      G|-----5-----5-----------3------------------|
      D|---5---5-----5-------5--------------------|
      A|-3-------------3---5----------------------|
      E|-----------------3------------------------|
      
      
      
      Primeira Estrofe:
      
      (Violão)
      
      
         Gm              F
      E|-------3-----------------5----------------|
      B|-----3---3-------------6---6--------------|
      G|---3-------3---3-----5-------5------------|
      D|-5-----------5-----7-----------7----------|
      A|-----------------8------------------------|
      E|------------------------------------------|
      
      
         Gm              Dm
      E|-------3---------------0-1----------------|
      B|-----3---3-----------3-----3--------------|
      G|---3-------3-------2---------2------------|
      D|-5-----------5---0-------------0----------|
      A|---------------5--------------------------|
      E|------------------------------------------|
      
      
         Gm              F
      E|---------3---------------1----------------|
      B|-------3---3-----------1---1--------------|
      G|-----3-------3-------2-------2------------|
      D|---5-----------5---3-----------3----------|
      A|------------------------------------------|
      E|-3---------------1------------------------|
      
      
         Gm               Dm
      E|----------3---------------1---------------|
      B|--------3---3---------3-------------------|
      G|------3-------3-----2---2-----------------|
      D|----5-----------3-0-------------0---------|
      A|-----------------------------------3------|
      E|-/3---------------------------------------|
      
      
      (Guitarra)
      
      
         Gm              F
      E|------------------------------------------|
      B|---------3---------------1----------------|
      G|-------3---3-----------2---2--------------|
      D|-----5-------5-------3-------3------------|
      A|---5-----------5---3-----------3----------|
      E|-3---------------1------------------------|
      
      
         Gm              Dm
      E|------------------------------------------|
      B|---------3---------------6----------------|
      G|-------3---3---------7-----7--------------|
      D|-----5-------5-----7---7-----7------------|
      A|---5-----------5-5-------------5----------|
      E|-3----------------------------------------|
      
      
         Gm              F
      E|------------------------------------------|
      B|---------3---------------1----------------|
      G|-------3---3-----------2---2--------------|
      D|-----5-------5-------3-------3------------|
      A|---5-----------5---3-----------3----------|
      E|-3---------------1------------------------|
      
      
         Gm              Dm
      E|------------------------------------------|
      B|---------3---------------6----------------|
      G|-------3---3---------7-----7--------------|
      D|-----5-------5-----7---7-----7------------|
      A|---5-----------5-5-------------5----------|
      E|-3----------------------------------------|
      
      
             Gm
      I have often told 
                    F
      You stories about the way
         Gm
      I lived the life of a drifter 
      Dm
         Waiting for the day
                Gm
      When I'd take your hand 
      
      And sing you songs
           F
      And maybe you would say
       Gm
      Come lay with me and love me
          Dm
      And I would surely stay
      
      
      Primeiro Refrão:
      
      (Violão)
      
      
         Bb      C       Gm
      E|-----------------------3------------------|
      B|---------------------3---3----------------|
      G|-----3-------5-----3-------3---3----------|
      D|---3---3---5---5-5-----------5------------|
      A|-1-------3--------------------------------|
      E|------------------------------------------|
      
      
         Eb      F       Bb      D
      E|------------------------------------------|
      B|---------------1-------3-----3------------|
      G|-----8-------2-------3-----2-2------------|
      D|---8---8---3-------3-----0-----0----------|
      A|-6---------------1------------------------|
      E|---------1--------------------------------|
      
      
         Gm      F       Bb      Eb      ( D )
      E|-------3-------5--------------------------|
      B|-----3-------6------------------8---------|
      G|---3-------5---------3---8--8-------------|
      D|-5-----------------3---3-8----8-----------|
      A|---------8-------1-------6---------5~-----|
      E|------------------------------------------|
      
      
         Cm      Dm      Gm
      E|-------------------------3----------------|
      B|-------4-------6-------3---3--------------|
      G|-----5-------7-------3-------3------------|
      D|---5-------7-------5-----------5----------|
      A|-3-------5--------------------------------|
      E|-----------------3------------------------|
      
      
      (Guitarra)
      
      
         Bb      C       Gm
      E|------------------------------------------|
      B|-------------------------3----------------|
      G|-----3-------5---------3---3--------------|
      D|---3---3---5---5-----5-------5------------|
      A|-1-------3---------5-----------5----------|
      E|-----------------3------------------------|
      
      
         Eb      F       Bb      D
      E|------------------------------------------|
      B|-----------------------3-----3------------|
      G|-----8---------2-----3-----2---2----------|
      D|---8---8-----3-----3-----0----------------|
      A|-6---------3-----1------------------------|
      E|---------1--------------------------------|
      
      
         Gm      F       Bb      Eb
      E|------------------------------------------|
      B|-----------------------3-------8----------|
      G|-------3-------2-----3-------8------------|
      D|-----5-------3-----3-------8--------------|
      A|---5-------3-----1-------6----------------|
      E|-3-------1--------------------------------|
      
      
         Cm     Dm     Gm
      E|------------------------------------------|
      B|-----4------6----------3------------------|
      G|-----5------7--------3---3----------------|
      D|---5------7--------5-------5--------------|
      A|-3------5--------5-----------5------------|
      E|---------------3--------------------------|
      
      
      Bb        C               Gm
         But I feel I'm growing older
      Eb          F                 Bb
         And the songs that I have sung
      D               Gm
      Echo in the distance
                F
      Like the sound
            Bb             Eb   ( D )
      Of a windmill going round
        Cm               Dm
      Guess I'll always be
                    Gm
      A soldier of fortune
      
      
      Solo: Gm  C  Gm  C
            Gm  Bb  C  Gm
      
      (Guitarra 1 - Principal)
      
      
      E|-----------------------------------------------------|
      B|-----------------------------11--11b13--11b13~-------|
      G|-----10--10b12--10b12~---12--------------------------|
      D|-12--------------------------------------------------|
      A|-----------------------------------------------------|
      E|-----------------------------------------------------|
      
      
      E|--------13--13b15--13b15~----------------------------|
      B|-13b15----------------------b15r13p11--13~-----------|
      G|-----------------------------------------------------|
      D|-----------------------------------------------------|
      A|-----------------------------------------------------|
      E|-----------------------------------------------------|
      
      
      E|--------13--13b15--13b15~----------------------------|
      B|-13b15----------------------b15r13p11--13b15--13b15~-|
      G|-----------------------------------------------------|
      D|-----------------------------------------------------|
      A|-----------------------------------------------------|
      E|-----------------------------------------------------|
      
      
      E|-----------------------------------------------------|
      B|-b15r13p11--13p11h13----11p10--11p10-----------------|
      G|--------------------------------------12~------------|
      D|-----------------------------------------------------|
      A|-----------------------------------------------------|
      E|-----------------------------------------------------|
      
      
      (Guitarra 2 – Dobra 1)
      
      
      E|-----------------------------------------------------|
      B|-----------------------------------------------------|
      G|------------------------7--10--10b12--10b12~---------|
      D|-7--10--10b12--10b12~--------------------------------|
      A|-----------------------------------------------------|
      E|-----------------------------------------------------|
      
      
      E|-----------------------------------------------------|
      B|--------11--13b15--13b15~---b15r13p11--13~-----------|
      G|-12b14-----------------------------------------------|
      D|-----------------------------------------------------|
      A|-----------------------------------------------------|
      E|-----------------------------------------------------|
      
      
      E|-----------------------------------------------------|
      B|--------13--13b15--13b15~---b15r13p11--13b15--13b15~-|
      G|-12h14-----------------------------------------------|
      D|-----------------------------------------------------|
      A|-----------------------------------------------------|
      E|-----------------------------------------------------|
      
      
      E|-----------------------------------------------------|
      B|-b15r13p11--13~--------------------------------------|
      G|------------------12p10--12p10-----------------------|
      D|--------------------------------12~------------------|
      A|-----------------------------------------------------|
      E|-----------------------------------------------------|
      
      
      (Guitarra 3 – Dobra 2)
      
      
      E|-----------------------------------------------------|
      B|-----------------------------------------------------|
      G|------------------------7--10--10b12--10b12~---------|
      D|-7--10--10b12--10b12~--------------------------------|
      A|-----------------------------------------------------|
      E|-----------------------------------------------------|
      
      
      E|-----------------------------------------------------|
      B|--------8--10b11--10b11~---b11r10p8--10~-------------|
      G|-10b12-----------------------------------------------|
      D|-----------------------------------------------------|
      A|-----------------------------------------------------|
      E|-----------------------------------------------------|
      
      
      E|-----------------------------------------------------|
      B|--------10--10b11--10b11~---b11r10p8--10b11--10b11~--|
      G|-10b12-----------------------------------------------|
      D|-----------------------------------------------------|
      A|-----------------------------------------------------|
      E|-----------------------------------------------------|
      
      
      E|-----------------------------------------------------|
      B|-b11r10p8--------------------------------------------|
      G|-----------10b12~---10p9--10p9-----------------------|
      D|--------------------------------12~------------------|
      A|-----------------------------------------------------|
      E|-----------------------------------------------------|
      
      
      
      Segunda Parte:
      
      (Violão)
      
      
      E|---------3---------------5----------------|
      B|-------3---3-----------6---6--------------|
      G|-----3-------3-------5-------5------------|
      D|---5-----------5---7-----------7----------|
      A|-----------------8------------------------|
      E|-3----------------------------------------|
      
      
      E|---------3---------------1----------------|
      B|-------3---3---------3-----3--------------|
      G|-----3-------3-----2---2-----2------------|
      D|---5-----------5-0-------------0----------|
      A|------------------------------------------|
      E|-3----------------------------------------|
      
      
      E|---------3---------------1----------------|
      B|-------3---3-----------1---1--------------|
      G|-----3-------3-------2-------2------------|
      D|---5-----------5---3-----------3----------|
      A|------------------------------------------|
      E|-3---------------1------------------------|
      
      
      E|----------3---------------1---------------|
      B|--------3---3---------3-------------------|
      G|------3-------3-----2---2-------0---------|
      D|----5-----------3-0----------------3------|
      A|------------------------------------------|
      E|-/3---------------------------------------|
      
      
            Gm
      Many times I've been a traveller
         F
      I looked for something new
          Gm
      In days of old when nights were cold
      Dm
         I wandered without you
      Gm
         Those days I thought my eyes
           F
      Had seen you standing near
      Gm
         Though blindness is confusing
      Dm
         It shows that you're not here
      
      
      Segundo Refrão:
      
      Bb        C               Gm
         Now I feel I'm growing older
      Eb          F                 Bb
         And the songs that I have sung
      D7              Gm
      Echo in the distance
                F
      Like the sound
            Bb             Eb   ( D )
      Of a windmill going round
        Cm               Dm
      Guess I'll always be
                    Gm
      A soldier of fortune
      
      
      Final:
      
      (Violão)
      
      
      E|-------3-------5--------------------------|
      B|-----3-------6------------------8---------|
      G|---3-------5---------3---8--8-------------|
      D|-5-----------------3---3-8----8-----------|
      A|---------8-------1-------6---------5~-----|
      E|------------------------------------------|
      
      
      E|------------------------------------------|
      B|-------4-------6--------------------------|
      G|-----5-------7----------------------------|
      D|---5-------7-----5------------------------|
      A|-3-------5-------5------------------------|
      E|-----------------3------------------------|
      
      
      E|------------------------------------------|
      B|------3-----------------------------------|
      G|-3----2----0------------------------------|
      D|-5----0----0------------------------------|
      A|-6----------------------------------------|
      E|-----------3------------------------------|
      
      
      Gm              F
      I can hear the sound
            Bb             Eb   ( D )
      Of a windmill going round
        Cm               Dm
      Guess I'll always be
                    Gm
      A soldier of fortune
        Eb               Dm
      Guess I'll always be
                    G
      A soldier of fortune
        Composição: DesconhecidoColaboração e revisão:
        • v.inny
        • tiagodearaujoneves
        • Ernst Otz
        • Van Halen
        • lucianofcavalcante@yahoo.com.br
        • +1

        Comentários 4

        140 .
        • Alexandre Alexandre: Em 12/03/2016 18:05

          Video aula por favor... video aulaaaaaaa

        • Enrique Enrique: Em 16/06/2013 20:15

          Os solos aparecem na SIMPLIFICADA. Abrçs.

        • jimmyslash jimmyslash: Em 10/07/2012 22:18

          cade o solinho da intro logo o principal naum tem

        • jhonatan.slash jhonatan.slash: Em 07/02/2012 10:14

          coloca pelo menos o solo da introdução aí

        140 cancelar

        conseguiu tocar?

        • •••

        covers

        Grave um vídeo tocando Soldier Of Fortune e mande pra gente!

        Ex.: http://www.youtube.com/watch?v=0IvSvIwGdwk
        ver covers de outras músicas »
        0:00 / 0:00
        2 versões de violão dificuldade exibições contribuição e correção
        2 versões de guitarra dificuldade exibições contribuição e correção
        2 versões de cavaco dificuldade exibições contribuição e correção
        2 versões de teclado dificuldade exibições contribuição e correção
        1 versão de baixo exibições contribuição e correção
        3 versões de Guitar Proformatodownloadscontribuição
        play/pausefechar subir/descer velocidade
        6ª corda E5ª corda A4ª corda D3ª corda G2ª corda B1ª corda E
          acordes
          transcrição verificada v.inny instrutor de guitarra
          publicidade
          fechar
          ok