Cifra Club

Soldier Of Fortune

Deep Purple

Cifra: Principal
exibições 70.651
Tom: G# (com acordes na forma de F) Capotraste na 3ª casa
INTRO: Em Bm A Em

(Violão)

      Gm               Dm
E|-------3-5-6/10~--8h10p8-6--5h6p5--3-5~---|
B|-----3------------------------------------|
G|---3--------------------------------------|
D|-5----------------------------------------|
A|------------------------------------------|
E|------------------------------------------|
       C                       Gm
E|--8--6h8p6\5--------------6p5-------------|
B|--8----------8~---5--8~-------8~----------|
G|--9--------------------------------7~-----|
D|-10---------------------------------------|
A|------------------------------------------|
E|------------------------------------------|

(Guitarra)

      Gm              Dm
E|------------------------------------------|
B|---------3---------------6----------------|
G|-------3---3---------7-----7--------------|
D|-----5-------5-----7---7-----7------------|
A|---5-----------5-5-------------5----------|
E|-3----------------------------------------|

      C               Gm
E|------------------------------------------|
B|---------5---------------3----------------|
G|-----5-----5-----------3------------------|
D|---5---5-----5-------5--------------------|
A|-3-------------3---5----------------------|
E|-----------------3------------------------|


Primeira Estrofe:

(Violão)

      Gm              F
E|-------3-----------------5----------------|
B|-----3---3-------------6---6--------------|
G|---3-------3---3-----5-------5------------|
D|-5-----------5-----7-----------7----------|
A|-----------------8------------------------|
E|------------------------------------------|

      Gm              Dm
E|-------3---------------0-1----------------|
B|-----3---3-----------3-----3--------------|
G|---3-------3-------2---------2------------|
D|-5-----------5---0-------------0----------|
A|---------------5--------------------------|
E|------------------------------------------|

      Gm              F
E|---------3---------------1----------------|
B|-------3---3-----------1---1--------------|
G|-----3-------3-------2-------2------------|
D|---5-----------5---3-----------3----------|
A|------------------------------------------|
E|-3---------------1------------------------|

      Gm               Dm
E|----------3---------------1---------------|
B|--------3---3---------3-------------------|
G|------3-------3-----2---2-----------------|
D|----5-----------3-0-------------0---------|
A|-----------------------------------3------|
E|-/3---------------------------------------|

(Guitarra)

      Gm              F
E|------------------------------------------|
B|---------3---------------1----------------|
G|-------3---3-----------2---2--------------|
D|-----5-------5-------3-------3------------|
A|---5-----------5---3-----------3----------|
E|-3---------------1------------------------|

      Gm              Dm
E|------------------------------------------|
B|---------3---------------6----------------|
G|-------3---3---------7-----7--------------|
D|-----5-------5-----7---7-----7------------|
A|---5-----------5-5-------------5----------|
E|-3----------------------------------------|

      Gm              F
E|------------------------------------------|
B|---------3---------------1----------------|
G|-------3---3-----------2---2--------------|
D|-----5-------5-------3-------3------------|
A|---5-----------5---3-----------3----------|
E|-3---------------1------------------------|

      Gm              Dm
E|------------------------------------------|
B|---------3---------------6----------------|
G|-------3---3---------7-----7--------------|
D|-----5-------5-----7---7-----7------------|
A|---5-----------5-5-------------5----------|
E|-3----------------------------------------|

PARTE 1

       Em                       D
I have often told you stories about the way
   Em                          Bm
I lived the life of a drifter      waiting for the day
          Em                                     D
When I'd take your hand and sing you songs Then maybe you would say
Em
Come lay with me and love me
    Bm                  52 50
And I would surely stay


Primeiro Refrão:

(Violão)

      Bb      C       Gm
E|-----------------------3------------------|
B|---------------------3---3----------------|
G|-----3-------5-----3-------3---3----------|
D|---3---3---5---5-5-----------5------------|
A|-1-------3--------------------------------|
E|------------------------------------------|

      Eb      F       Bb      D
E|------------------------------------------|
B|---------------1-------3-----3------------|
G|-----8-------2-------3-----2-2------------|
D|---8---8---3-------3-----0-----0----------|
A|-6---------------1------------------------|
E|---------1--------------------------------|

      Gm      F       Bb      Eb      ( D )
E|-------3-------5--------------------------|
B|-----3-------6------------------8---------|
G|---3-------5---------3---8--8-------------|
D|-5-----------------3---3-8----8-----------|
A|---------8-------1-------6---------5~-----|
E|------------------------------------------|

      Cm      Dm      Gm
E|-------------------------3----------------|
B|-------4-------6-------3---3--------------|
G|-----5-------7-------3-------3------------|
D|---5-------7-------5-----------5----------|
A|-3-------5--------------------------------|
E|-----------------3------------------------|

(Guitarra)

      Bb      C       Gm
E|------------------------------------------|
B|-------------------------3----------------|
G|-----3-------5---------3---3--------------|
D|---3---3---5---5-----5-------5------------|
A|-1-------3---------5-----------5----------|
E|-----------------3------------------------|

      Eb      F       Bb      D
E|------------------------------------------|
B|-----------------------3-----3------------|
G|-----8---------2-----3-----2---2----------|
D|---8---8-----3-----3-----0----------------|
A|-6---------3-----1------------------------|
E|---------1--------------------------------|

      Gm      F       Bb      Eb
E|------------------------------------------|
B|-----------------------3-------8----------|
G|-------3-------2-----3-------8------------|
D|-----5-------3-----3-------8--------------|
A|---5-------3-----1-------6----------------|
E|-3-------1--------------------------------|

      Cm     Dm     Gm
E|------------------------------------------|
B|-----4------6----------3------------------|
G|-----5------7--------3---3----------------|
D|---5------7--------5-------5--------------|
A|-3------5--------5-----------5------------|
E|---------------3--------------------------|

REFRÃO:

G        A                Em
  But I feel I'm growing older
C          D                 G
  And the songs that I have sung
  B7           Em
  Echo in the distance
            D
  Like the sound
        G              C
  Of a windmill going round
    Am               Bm
  Guess I'll always be
                Em
  A soldier of fortune

SOLO: Em A Em A Em G A Em


(Guitarra 1 - Principal)

E|-----------------------------------------------------|
B|-----------------------------11--11b13--11b13~-------|
G|-----10--10b12--10b12~---12--------------------------|
D|-12--------------------------------------------------|
A|-----------------------------------------------------|
E|-----------------------------------------------------|

E|--------13--13b15--13b15~----------------------------|
B|-13b15----------------------b15r13p11--13~-----------|
G|-----------------------------------------------------|
D|-----------------------------------------------------|
A|-----------------------------------------------------|
E|-----------------------------------------------------|

E|--------13--13b15--13b15~----------------------------|
B|-13b15----------------------b15r13p11--13b15--13b15~-|
G|-----------------------------------------------------|
D|-----------------------------------------------------|
A|-----------------------------------------------------|
E|-----------------------------------------------------|

E|-----------------------------------------------------|
B|-b15r13p11--13p11h13----11p10--11p10-----------------|
G|--------------------------------------12~------------|
D|-----------------------------------------------------|
A|-----------------------------------------------------|
E|-----------------------------------------------------|

(Guitarra 2 – Dobra 1)

E|-----------------------------------------------------|
B|-----------------------------------------------------|
G|------------------------7--10--10b12--10b12~---------|
D|-7--10--10b12--10b12~--------------------------------|
A|-----------------------------------------------------|
E|-----------------------------------------------------|

E|-----------------------------------------------------|
B|--------11--13b15--13b15~---b15r13p11--13~-----------|
G|-12b14-----------------------------------------------|
D|-----------------------------------------------------|
A|-----------------------------------------------------|
E|-----------------------------------------------------|

E|-----------------------------------------------------|
B|--------13--13b15--13b15~---b15r13p11--13b15--13b15~-|
G|-12h14-----------------------------------------------|
D|-----------------------------------------------------|
A|-----------------------------------------------------|
E|-----------------------------------------------------|

E|-----------------------------------------------------|
B|-b15r13p11--13~--------------------------------------|
G|------------------12p10--12p10-----------------------|
D|--------------------------------12~------------------|
A|-----------------------------------------------------|
E|-----------------------------------------------------|

(Guitarra 3 – Dobra 2)

E|-----------------------------------------------------|
B|-----------------------------------------------------|
G|------------------------7--10--10b12--10b12~---------|
D|-7--10--10b12--10b12~--------------------------------|
A|-----------------------------------------------------|
E|-----------------------------------------------------|

E|-----------------------------------------------------|
B|--------8--10b11--10b11~---b11r10p8--10~-------------|
G|-10b12-----------------------------------------------|
D|-----------------------------------------------------|
A|-----------------------------------------------------|
E|-----------------------------------------------------|

E|-----------------------------------------------------|
B|--------10--10b11--10b11~---b11r10p8--10b11--10b11~--|
G|-10b12-----------------------------------------------|
D|-----------------------------------------------------|
A|-----------------------------------------------------|
E|-----------------------------------------------------|

E|-----------------------------------------------------|
B|-b11r10p8--------------------------------------------|
G|-----------10b12~---10p9--10p9-----------------------|
D|--------------------------------12~------------------|
A|-----------------------------------------------------|
E|-----------------------------------------------------|


Segunda Parte:

(Violão)

E|---------3---------------5----------------|
B|-------3---3-----------6---6--------------|
G|-----3-------3-------5-------5------------|
D|---5-----------5---7-----------7----------|
A|-----------------8------------------------|
E|-3----------------------------------------|

E|---------3---------------1----------------|
B|-------3---3---------3-----3--------------|
G|-----3-------3-----2---2-----2------------|
D|---5-----------5-0-------------0----------|
A|------------------------------------------|
E|-3----------------------------------------|

E|---------3---------------1----------------|
B|-------3---3-----------1---1--------------|
G|-----3-------3-------2-------2------------|
D|---5-----------5---3-----------3----------|
A|------------------------------------------|
E|-3---------------1------------------------|

E|----------3---------------1---------------|
B|--------3---3---------3-------------------|
G|------3-------3-----2---2-------0---------|
D|----5-----------3-0----------------3------|
A|------------------------------------------|
E|-/3---------------------------------------|

PARTE 2:

        Em                          D
Many times I've been a traveller I looked for something new
    Em                                Bm
In days of old when nights were cold     I wandered without you
Em                                       D
   But those days I thought my eyes Had seen you standing near
Em
   Though blindness is confusing
Bm                               52 50
   It shows that you're not here


REFRÃO:

G        A                Em
  But I feel I'm growing older
C          D                 G
  And the songs that I have sung
  B7           Em
  Echo in the distance
            D
  Like the sound
        G              C
  Of a windmill going round
    Am               Bm
  Guess I'll always be
                Em
  A soldier of fortune



Final:

(Violão)

E|-------3-------5--------------------------|
B|-----3-------6------------------8---------|
G|---3-------5---------3---8--8-------------|
D|-5-----------------3---3-8----8-----------|
A|---------8-------1-------6---------5~-----|
E|------------------------------------------|

E|------------------------------------------|
B|-------4-------6--------------------------|
G|-----5-------7----------------------------|
D|---5-------7-----5------------------------|
A|-3-------5-------5------------------------|
E|-----------------3------------------------|

E|------------------------------------------|
B|------3-----------------------------------|
G|-3----2----0------------------------------|
D|-5----0----0------------------------------|
A|-6----------------------------------------|
E|-----------3------------------------------|

FINAL:

  C               D
  I can hear the sound
        G              C
  Of a windmill going round
     Am               Bm
  I guess I'll always be
                Em
  A soldier of fortune
      C               Bm
  I guess I'll always be
                E
  A soldier of fortune
Acordes para:

    0 comentários

      mostrar mais comentários

      Conseguiu tocar?

      11tocaram0ainda não

      Grave um vídeo tocando Soldier Of Fortune e mande pra gente!

      00:00 / 00:00
      outros vídeos desta música
      repetirqualidadeautomática
      Outro vídeos desta música
        00:00 / 00:00
        automática
        Capítulos
        • Tocando a música
        • Dicas Iniciais / Equipamentos
        • Acordes da Introdução
        • Tocando a Introdução
        • Introdução - Violão
        • Introdução - Guitarra
        • Acordes da Primeira Parte
        • Tocando a Primeira Parte
        • Primeira Estrofe: Violão - Parte 1 de 2
        • Primeira Estrofe: Violão - Parte 2 de 2
        • Primeira Estrofe - Guitarra
        • Acordes do Refrão
        • Tocando o Primeiro Refrão
        • Primeiro Refrão - Violão
        • Primeiro Refrão - Guitarra
        • Tocando o Solo
        • Solo - Guitarra 1 (Principal)
        • Solo - Guitarra 1
        • Solo - Guitarra 3
        • Encerramento
        • Ficha Técnica / Erros de Gravação
        OK