Cifra Club

Black Friday Cifra Club

Strange kind of woman

Deep Purple

Tab de baixo: Versão 3
G|-----------------------------------|
D|-----------------------------------|
A|-----------------------------------|
E|7x--------------2~-----------------|

 Verse x4
G|-----------------------------------------------|
D|-----------------------------------------------|
A|-----------------------------------------------|
E|7-7-77-7--7-7-77-7--5-5--3-3-7-7-77-7----------|

 Chorus
G|---------------------------------------------------------|
D|---------------------------------------------------------|
A|--5-------------5------------------------3h5-/7-5--------|
E|7---7--7-5-7--7---7--7-5-7---5-5-3-3-7-7-----------------|

G|-----------------------------------------------------------|
D|----------------------------------------------7/9---11-9---|
A|--5-------------5------------------------7h9---------------|
E|7---7--7-5-7--7---7--7-5-7---5-5-3-3-7-7-------------------|

 Verse x2
G|-----------------------------------------------|
D|-----------------------------------------------|
A|-----------------------------------------------|
E|7-7-77-7--7-7-77-7--5-5--3-3-7-7-77-7----------|

 Chorus
G|---------------------------------------------------------|
D|---------------------------------------------------------|
A|--5-------------5------------------------3h5-/7-5--------|
E|7---7--7-5-7--7---7--7-5-7---5-5-3-3-7-7-----------------|

G|-----------------------------------------------------------|
D|----------------------------------------------7/9---11-9---|
A|--5-------------5------------------------7h9---------------|
E|7---7--7-5-7--7---7--7-5-7---5-5-3-3-7-7-------------------|

 Bridge
G|--------------------7---------------------------------------|
D|-----121212-----------7-------7---7----9-----9--------------|
A|10~----------10/5~------5-------7--------9-----9------------|
E|--------------------------5~---------7-----7----------------|

G|----------12------7-----------------------------------------|
D|-----1212-----------7-------7---7----9-----9----------------|
A|10~-----------5~------5-------7--------9-----9--------------|
E|------------------------5~---------7-----7------------------|

G|-----------------------|
D|-----------------------|
A|----------7~-----------|
E|5~---------------------|
 x4
G|-----------------------------------------------|
D|-----------------------------------------------|
A|-----------------------------------------------|
E|7-7-77-7--7-7-77-7--5-5--3-3-7-7-77-7----------|

 Chorus
G|---------------------------------------------------------|
D|---------------------------------------------------------|
A|--5-------------5------------------------3h5-/7-5--------|
E|7---7--7-5-7--7---7--7-5-7---5-5-3-3-7-7-----------------|

G|-----------------------------------------------------------|
D|----------------------------------------------7/9---11-9---|
A|--5-------------5------------------------7h9---------------|
E|7---7--7-5-7--7---7--7-5-7---5-5-3-3-7-7-------------------|

G|-----------------------|
D|-----------------------|
A|-----------------------|
E|2~---------------------|

 Verse x4
G|-----------------------------------------------|
D|-----------------------------------------------|
A|-----------------------------------------------|
E|7-7-77-7--7-7-77-7--5-5--3-3-7-7-77-7----------|

 Chorus
G|---------------------------------------------------------|
D|---------------------------------------------------------|
A|--5-------------5------------------------3h5-/7-5--------|
E|7---7--7-5-7--7---7--7-5-7---5-5-3-3-7-7-----------------|

G|-----------------------------------------------------------|
D|----------------------------------------------7/9---11-9---|
A|--5-------------5------------------------7h9---------------|
E|7---7--7-5-7--7---7--7-5-7---5-5-3-3-7-7-------------------|

 Outro x7
G|-----------------------------------------------|
D|-----------------------------------------------|
A|-----------------------------------------------|
E|7-7-77-7--7-7-77-7--5-5--3-3-7-7-77-7----------|
00:00 / 00:00
Outros vídeos desta música
Repetir
Outros vídeos desta música
Composição de Ian Gillan / Ian Paice / Jon Lord / Ritchie Blackmore / Roger Glover
Colaboração e revisão:
  • igor pimenta
46 exibições

0 comentários

Ver todos os comentários

Conseguiu tocar?

0 Tocaram 0 Ainda não

Grave um vídeo tocando Strange kind of woman e nos envie!

Entre para oCifra Club PRO

Tenha acesso a benefícios exclusivos no App e no Site

  • Chega de anúncios

  • Prioridade de compra em lançamentos

  • Mais recursos no app do Afinador

  • Atendimento Prioritário

  • Descontos nos produtos Cifra Club

  • Ajude a produzir mais conteúdo

00:00 / 00:00

Cifra Club Pro

Aproveite o Cifra Club com benefícios exclusivos e sem anúncios
Cifra Club Pro
Aproveite o Cifra Club com benefícios exclusivos e sem anúncios
OK