Ted The Mechanic

Deep Purple

Composição de: Ian Gillan / Ian Paice / Jon Lord / Júlio Borges / Roger Glover
tom: C
MAIN RIFF 
e|-----------------------------------|----------------------------------| 
B|-----------------------------------|----------------------------------| 
G|-----------------------------------|----------------------------------| 
D|---2---5-------5-------7-------5---|---2---5-------5-------7-------5--| 
A|---2---5-------5-------7-------5---|---2---5-------5-------7-------5--| 
E|---0---3---0---3---0---5---0---3---|---0---3---0---3---0---5---0---3--| 
PM - - - - - - - - - - - - PM - - - - - - - - - - - - 
 
VERSE 
e |-----------------------------------|----------------------------------| 
B |-----------------------------------|----------------------------------| 
G |-----------------------------------|----------------------------------| 
D |---2---5-------5-------7-------5---|---2---5-------5-------7-------5--| 
A |---2---5-------5-------7-------5---|---2---5-------5-------7-------5--| 
E |---0---3---0---3---0---5---0---3---|---0---3---0---3---0---5---0---3--| 
PM - - - - - - - - - - - - PM - - - - - - - - - - - - 
 
He was playing pool and drinking beer ... 
 
e |-----------------------------------|----------------------------------| 
B |-----------------------------------|----------------------------------| 
G |-----------------------------------|----------------------------------|  
REPEAT 
D |---2---5-------5-------7-------5---|---2---5-------5-------7---8---9--| 
A |---2---5-------5-------7-------5---|---2---5-------5-------7---8---9--| 
E |---0---3---0---3---0---5---0---3---|---0---3---0---3---0---5---6---7--| 
PM - - - - - - - - - - - - PM - - - - - - 
 
CHORUS 
e |--------------------|-------------|-----------------------|-------------| 
B |--------------------|---10---9~---|-----------------------|---10---9~---| 
G |---------7~---------|---9----9~---|---------7~-----9(B)---|---9----9~---| 
D |---7--9------9--7---|-------------|---7--9------9---------|-------------| 
A |--------------------|-------------|-----------------------|-------------| 
E |--------------------|-------------|-----------------------|-------------| 
 
I wiggle in my chair ... 
 
e |--------------------|-------------|-------------------------------------| 
B |--------------------|---10---9~---|-------------------------------------| 
G |---------7~---------|---9----9~---|---------7~-----9(B)---7-------------| 
D |---7--9------9--7---|-------------|---7--9------9------------7--5-------| 
A |--------------------|-------------|--------------------------------7~---| 
E |--------------------|-------------|-------------------------------------| 
 
Can I buy you a beer? 
 
PRe|-SOLO / OUTRO 
e |-------5--7--7(B)--7----------|--------------------| 
B |---/7-----------------7--8~---|---6---6---5---6\---| 
G |------------------------------|---5---5---5---5\---| 
D |------------------------------|---7---7---5---7\---| 
A |------------------------------|--------------------| 
E |------------------------------|--------------------| 
 
e |-------5--7--7(B)--7-------------|----------------| 
B |---/7-----------------7--8--5~---|---6---5---6\---| 
G |---------------------------------|---5---5---5\---| 
D |---------------------------------|---7---5---7\---| 
A |---------------------------------|----------------| 
E |---------------------------------|----------------| 
 
e |-------5--7--7(B)--7----------|------------------| 
B |---/7-----------------7--8~---|---8~---8-/-10~---| 
G |------------------------------|---7~---7-/-9 ~---| 
D |------------------------------|------------------| 
A |------------------------------|------------------| 
E |------------------------------|------------------| 
 
e |------------------------------------------| 
B |---12--12-----12--12-----12--12-----12/---| 
G |---11--11-----11--11-----11--11-----11/---| SOLO - ??? 
D |------------------------------------------| 
A |------------------------------------------| 
E |------------------------------------------| 
 
OUTRO 
e |------------------| 
B |------------------| 
G |---7--------------| 
D |------7--5--------| 
A |-------------7*---| 
E |------------------|
Página 1 / 1

Letras e título
Acordes e artista

resetar configurações
OK