Cifra Club

You've Seen The Butcher

Deftones

Cifra: Principal (violão e guitarra)
exibições 608
Tom: G
E|-----------------------|
B|-----------------------|
G|-----------------------|
D|-----------------------|
A|-----------------------|
E|-----------------------|
A|-0-6p0-0-0-0----0-0----|

E|----------------------------------------------------------|
B|----------------------------------------------------------|
G|----------------------------------------------------------|
D|----------------------------------------------------------|
A|----------------------------------------------------------|
E|----------------------------------------------------------|
A|-0-6p0-0-9p0-0-0-0----0-0-----0-6p0-0-6p0-0-0-0----0-0----|

Refrão:

E|--------||-------------------------------------|
B|--------||-------------------------------------|
G|--------||-------------------------------------|
D|--------||-------------------------------------|
A|--------||-------------------------------------|
E|--------||-------------------------------------|
A|-0-2h4--||-0-2h4--0-2-4--0-4-6--0-10-12-12-----|

Pós Refrão:

E|----------------------||-------------------------------------------------|
B|----------------------||-------------------------------------------------|
G|----------------------||-------------------------------------------------|
D|----------------------||-------------------------------------------------|
A|----------------------||-------------------------------------------------|
E|----------------------||-------------------------------------------------|
A|-6p0-0-6p0-0-0-0--0-0-||--0-6p0-0-0-0--0-0----0-6p0--0-6p0-0-0-0--0-0----|

E|----------------------------------------------------------------|
B|----------------------------------------------------------------|
G|----------------------------------------------------------------|
D|----------------------------------------------------------------|
A|----------------------------------------------------------------|
E|----------------------------------------------------------------|
A|-0-6p0--0-8p0--0-9p0-0-0-0--0-0------0-6p0--0-6p0-0-0-0--0-0----|

Outro:

E|-----------------------------------|
B|-----------------------------------|
G|-----------------------------------|
D|-----------------------------------|
A|-----------------------------------|
E|-----------------------------------|
A|-0-6p0--0-8p0--0-9p0-0-0-0--0-0----|
   P.M..  . ...  . ... . . .  . .
Acordes para:
    Composição: Deftones Colaboração e revisão:
    • Pedro Henrique

    0 comentários

    mostrar mais comentários

    Conseguiu tocar?

    0 tocaram 0 ainda não

    Grave um vídeo tocando You've Seen The Butcher e mande pra gente!

    00:00 / 00:00
    outros vídeos desta música
    repetir qualidade Automático
    Outros vídeos desta música
    00:00 / 00:00
    Automático
    OK