Cifra Club

Aprenda

Matutina

Fernando Delgadillo

Cifra: Principal (violão e guitarra)
tom: G
Saludos, es la primera tablatura con la que colaboro, espero que les agrade,  
pues en lo particular a mi me gustan todas las canciones de Fernando Delgadillo,  
pero haber que les parece 

INTRO:          
          G                 Bm                G7                  C9 
1|-----------------|-----------------|-----------------|---------------------|e 
2|-----3-------3---|-----3-------3---|-----3-------3---|-----3-------3-------|b 
3|---4-------4---4-|---4-------4---4-|---4-------4---4-|---0-------0---0-----|g 
4|-5-----5-5-------|-4-----4-4-------|-3-----3-3-------|-2-----2-2-------2-4-|D 
5|-----------------|-----------------|-----------------|---------------------|A 
6|-----------------|-----------------|-----------------|---------------------|E 

          G                 Bm                G7                  C9 
1|-----------------|-----------------|-----------------|----------------|e 
2|-----3-------3---|-----3-------3---|-----3-------3---|-----3------3---|b 
3|---4-------4---4-|---4-------4---4-|---4-------4---4-|---0------0---0-|g 
4|-5-----5-5-------|-4-----4-4-------|-3-----3-3-------|-2----2-2-------|D 
5|-----------------|-----------------|-----------------|----------------|A 
6|-----------------|-----------------|-----------------|----------------|E 

          *              **           C9      D      A/D      A   
1|-----------------|-------------|----------------|-----------------|e 
2|-----3-------3---|-----3-3---3-|-----3------3---|-----3---2-------|b 
3|---0-------0---0-|---0---0h2-0-|---0------2---2-|---2---2---2---2-|g 
4|-1-----1-1-------|-0-----------|-2------0-------|-2-----------2---|D 
5|-----------------|-------------|----------------|-----------------|A 
6|-----------------|-------------|----------------|-----------------|E 

a):  De aquí se empieza a tocar en cada párrafo  
G                 Bm                G7                  C9 
1|-----------------|-----------------|-----------------|----------------|e 
2|-----3-------3---|-----3-------3---|-----3-------3---|-----3------3---|b 
3|---4-------4---4-|---4-------4---4-|---4-------4---4-|---0------0---0-|g 
4|-5-----5-5-------|-4-----4-4-------|-3-----3-3-------|-2----2-2-------|D 
5|-----------------|-----------------|-----------------|----------------|A 
6|-----------------|-----------------|-----------------|----------------|E 

          *              **           C9      D      A/D      A   
1|-----------------|-------------|----------------|-----------------|e 
2|-----3-------3---|-----3-3---3-|-----3------3---|-----3---2-------|b 
3|---0-------0---0-|---0---0h2-0-|---0------2---2-|---2---2---2---2-|g 
4|-1-----1-1-------|-0-----------|-2------0-------|-2-----------2---|D 
5|-----------------|-------------|----------------|-----------------|A 
6|-----------------|-------------|----------------|-----------------|E 

b): la parte b se toca con la posición de los acordes de la parte a),  
solo hay que escuchar la canción para ver donde se hacen los cambios. 

Y ya sin nada más que decir aquí empecemos con la canción 

a) Oigo, como llama una 
campana que a esta hora de 
la mañana ya se fija en el  
reloj oigo al viento que sopla 
ligero y oigo el estruendoso 
vuelo pasajero de un avión. 

a) Oigo como pasa la vecina 
que canta mientras camina 
y a lo lejos un motor. 
Con el que imagino una  
Ventana que creció junto a 
mi cama cuando el sueño 
me venció. 

a) Oigo un perro ladrando 
distante y revoloteos 
constantes de unos pájaros 
que están siempre disputándose 
las ramas como todas 
las mañanas anunciando 
que se irán. 

a) Oigo y lo que oigo me 
rodea 
y oigo junto a mí l idea  
de que tengo que salir 
a ser parte de esta algarabía 
que al menos por este día 
todavía se deja oir. 

a) Oigo un sin fin de ruidos 
urbanos que quizás por 
cotidianos nunca llaman mi 
atención oigo todo lo que 
siempre he oído y en la 
almohada oigo el latido 
de mi propio corazón. 

b) Oigo todo lo que siempre he 
oído y en la almohada oigo el latido 
                       G   
de mi propio corazoooooooón
Colaboração e revisão:
  • W12
348 exibições
    • ½ Tom
    • A
    • Bb
    • B
    • C
    • Db
    • D
    • Eb
    • E
    • F
    • F#
    • G
    • Ab
  • Adicionar à lista

    0 comentários

    Ver todos os comentários

    Conseguiu tocar?

    0 Tocaram 0 Ainda não

    Grave um vídeo tocando Matutina e nos envie!

    00:00 / 00:00
    outros vídeos desta música
    repetir qualidade Automático
    Outros vídeos desta música
    00:00 / 00:00
    Automático

    Cifra Club Pro

    Aproveite o Cifra Club com benefícios exclusivos e sem anúncios
    Cifra Club Pro
    Aproveite o Cifra Club com benefícios exclusivos e sem anúncios
    OK