Cifra Club

Aprenda

Mis Hojas De Noviembre

Fernando Delgadillo

Cifra: Principal (violão e guitarra)
tom: Bb (forma dos acordes no tom de G) Capotraste na 3ª casa
Intro:
E|-------------------------0-------------0-------------0h2p0------|
B|-----------3------3--------3---------3---------3-----------3----|
G|---------0---0-------2-------0-----0-----0-------2------------2-|
D|-----------------------------------------------0----------------|
A|--------------------------------0-------------------------------|
E|----3-------------2---------------------------------------------|

E|-------------0-----------0---------0-------------------0------------|
B|-----------3--------3------3------3---3---3---3----3-----3----------|
G|---------0-----0-------2----0---0-------2---2---2----0-----0--------|
D|--------------------------------------0-----------------------------|
A|------------------------------0-------------------------------------|
E|----3---------------2------------------------------3----------------|

E|--------0---------0--------0h2p0------|
B|------3---3-----3------3--------3-----|
G|----0---------0-----0----2--------2---|
D|-----------------------0--------------|
A|------------0-------------------------|
E|--2-----------------------------------|

E|----------0----------0-------------0---------0h2p0------2-|
B|--------3------3-------3---------3-----3-----------3----3-|
G|------0----0------2------0-----0-----0---2-----------2----|
D|---------------------------------------0------------------|
A|----------------------------0-----------------------------|
E|----3----------2------------------------------------------|

Verso:
    El mundo…
E|-------2-------------------------------------0-------5--3h2-----2----|
B|-----3------3----3----1---0---3--3--3--3-----3-3--3--5--------3------|
G|---2--------2----2----0---0---0--2--0--2----------2---------2-----2--|
D|-0---------------------------------------0--------------0------------|
A|------------4----2----0---------------------------0--4---------------|
E|------------------------------3--2--0--2---3-------------------------|

E|-------0------------------------------------------0-----------0---|
B|-----2---2----3---1--0--3--3--3--3-------3----2-----2-------3-----|
G|---3-------0--2---0--0--0--2--0--2-----0---0----0---------2-----2-|
D|-----------------------------------0------------------0-----------|
A|-4------------2---0---------------------------0---------2---------|
E|------------------------3--2--0--2---3----------------------------|

E|-------0---------0---------------------------------------|
B|-----3---------3-------0--3--3--3--3--3--3--3--3--3--3---|
G|---2-----2---0------------0--2--0--2--0--2--0--0--0--0-0-|
D|-------------------0---------------------------------2---|
A|-1---------0--------------------------------0--2--4------|
E|---------------------3----3--2--0--2--3--4---------------|

                Si ya no te dejo de mirar
E|-----0-------0-------0--------0---------3---------2--------0-----|
B|--------------------------2-----2----3--3-----2-----0--3-----3---|
G|---2---2---0---0---0---0----2-----0--0-----0----0--------0-----0-|
D|----------------------------------------2------------------------|
A|-2-------1----------------0----------2--------0------------------|
E|-----------------3-------------------------------------3---------|

                         Ten mi voz,
E|-----0----------0----------0--------0--------0--------0------|
B|-3-----3----3-----3-------------------------------------3----|
G|---2-----0----2-----0----2---2----2---0----2---0----2-----0--|
D|-----------------------0-------------------------------------|
A|------------0-------------------3--------3--------2----------|
E|-2-----------------------------------------------------------|

   Canción no pensó en otro fin                 que comenzar
E|-----0--------2--------0--------------2-----------------0-------|
B|--------------------------------0h2h3-----3--------3--------3---|
G|---2---0----2---2----2---0----0---------4---0----0---0----2---0-|
D|----------0-----------------------------------------------------|
A|-1-----------------0--------2---------2-----------------0-------|
E|-----------------------------------------------3----------------|

                                                Podía hacerte sonreír
E|---------------------0--------------------------------0-----------0h2-|
B|-2-5--3-------3--3-----3----2-5---5---4------3----3--------3--3-------|
G|-2-5----0---0------2-----0--2-2---2---2----0---0----2---0-------------|
D|--------------------------------2---2---------------------------0-----|
A|--------------------------------------------------------------0-------|
E|-2----3---3------2----------2------------3--------2--------0----------|

Solo 2:
E|-------------------------0-------------0-------------0h2p0------|
B|-----------3------3--------3---------3---------3-----------3----|
G|---------0---0-------2-------0-----0-----0-------2------------2-|
D|-----------------------------------------------0----------------|
A|--------------------------------0-------------------------------|
E|----3-------------2---------------------------------------------|

E|-------------0-----------0---------0-------------------0------------|
B|-----------3--------3------3------3---3---3---3----3-----3----------|
G|---------0-----0-------2----0---0-------2---2---2----0-----0--------|
D|--------------------------------------0-----------------------------|
A|------------------------------0-------------------------------------|
E|----3---------------2------------------------------3----------------|

E|--------0---------0--------0h2p0------|
B|------3---3-----3------3--------3-----|
G|----0---------0-----0----2--------2---|
D|-----------------------0--------------|
A|------------0-------------------------|
E|--2-----------------------------------|

E|----------0----------0-------------0---------0h2p0------2-|
B|--------3------3-------3---------3-----3-----------3----3-|
G|------0----0------2------0-----0-----0---2-----------2----|
D|---------------------------------------0------------------|
A|----------------------------0-----------------------------|
E|----3----------2------------------------------------------|

    Quisiera acariciar…
E|-------2-------------------------------------0-------5--3h2-----2----|
B|-----3------3----3----1---0---3--3--3--3-----3-3--3--5--------3------|
G|---2--------2----2----0---0---0--2--0--2----------2---------2-----2--|
D|-0---------------------------------------0--------------0------------|
A|------------4----2----0---------------------------0--4---------------|
E|------------------------------3--2--0--2---3-------------------------|

E|-------0---------------------------------0--------0-----------0---|
B|-----2---2----3---1--0--3--3--3--3---------3--2-----2-------3-----|
G|---3-------0--2---0--0--0--2--0--2-----0--------0---------2-----2-|
D|-----------------------------------0------------------0-----------|
A|-4------------2---0---------------------------0---------2---------|
E|------------------------3--2--0--2---3----------------------------|

E|-------0---------0---------------------------------------|
B|-----3---------3-------0--3--3--3--3--3--3--3--3--3--3---|
G|---2-----2---0------------0--2--0--2--0--2--0--0--0--0-0-|
D|-------------------0---------------------------------2---|
A|-1---------0--------------------------------0--2--4------|
E|---------------------3----3--2--0--2--3--4---------------|

                Si ya no te dejo de tocar…
E|-----0-------0-------0--------0---------3---------2--------0-----|
B|--------------------------2-----2----3--3-----2-----0--3-----3---|
G|---2---2---0---0---0---0----2-----0--0-----0----0--------0-----0-|
D|----------------------------------------2------------------------|
A|-2-------1----------------0----------2--------0------------------|
E|-----------------3-------------------------------------3---------|

                         Ten mi voz,
E|-----0----------0----------0--------0--------0--------0------|
B|-3-----3----3-----3-------------------------------------3----|
G|---2-----0----2-----0----2---2----2---0----2---0----2-----0--|
D|-----------------------0-------------------------------------|
A|------------0-------------------3--------3--------2----------|
E|-2-----------------------------------------------------------|

   Canción no pensó en otro fin                 que continuar
E|-----0--------2--------0--------------2-----------------0-------|
B|--------------------------------0h2h3-----3--------3--------3---|
G|---2---0----2---2----2---0----0---------4---4----0---0----2---0-|
D|----------0-----------------------------------------------------|
A|-1-----------------0--------2---------2-----------------0-------|
E|-----------------------------------------------3----------------|

                                                Podía hacerte sonreír
E|---------------------0--------------------------------0-----------0h2-|
B|-2-5--3-------3--3-----3----2-5---5---4------3----3--------3--3-------|
G|-2-5----0---0------2-----0--2-2---2---2----0---0----2---0-------------|
D|--------------------------------2---2---------------------------0-----|
A|--------------------------------------------------------------0-------|
E|-2----3---3------2----------2------------3--------2--------0----------|

Solo 3:
E|-------------------------0-------------0-------------0h2p0------|
B|-----------3------3--------3---------3---------3-----------3----|
G|---------0---0-------2-------0-----0-----0-------2------------2-|
D|-----------------------------------------------0----------------|
A|--------------------------------0-------------------------------|
E|----3-------------2---------------------------------------------|

E|-----------0-----------0--------------------------------------0h2h0-|
B|---------3--------3------3---0------------------3-----3---3---------|
G|-------0-----0-------2----0------------0------------2-------0-------|
D|-----------------------------------------0h2h4h5--0-----------0-----|
A|-----------------------------0-0h2h4h5------------------0-----------|
E|--3---------------2-------------------------------------------------|

E|--------0----------0-------------0-------0h2p0-----0h2h0-----|
B|------3------3-------3---------3---------------3---------3---|
G|----0----0------2------0-----0-----0---2---------2---------2-|
D|-------------------------------------0-----------------------|
A|--------------------------0----------------------------------|
E|--3----------2-----------------------------------------------|

E|----------0----------0-------------0---------0h2p0------2-|
B|----3---3------3-------3---------3-----3-----------3----3-|
G|------0----0------2------0-----0-----0---2-----------2----|
D|---------------------------------------0------------------|
A|----------------------------0-----------------------------|
E|----3----------2------------------------------------------|

    Tus manos son la suavidad…
E|--------------5----5--3-2----0--------------0-------5--3h2-----2----|
B|---3-3h5----5-5--3-3--1-1----3--3--3--3-----3-3--3--5--------3------|
G|---2--------6----2--------------2--0--2----------2---------2-----2--|
D|-0--------------------------------------0--------------0------------|
A|------------4----2----0--------------------------0--4---------------|
E|-----------------------------3--2--0--2---3-------------------------|

E|-------0---------------------------------0--------0-----------0---|
B|-----2---2----3---1--0--3--3--3--3---------3--2-----2-------3-----|
G|---3-------0--2---0--0--0--2--0--2-----0--------0---------2-----2-|
D|-----------------------------------0------------------0-----------|
A|-4------------2---0---------------------------0---------2---------|
E|------------------------3--2--0--2---3----------------------------|

E|-------0---------0---------------------------------------|
B|-----3---------3-------0--3--3--3--3--3--3--3--3--3--3---|
G|---2-----2---0------------0--2--0--2--0--2--0--0--0--0-0-|
D|-------------------0---------------------------------2---|
A|-1---------0--------------------------------0--2--4------|
E|---------------------3----3--2--0--2--3--4---------------|

                Si jamás te dejo de abrazar…
E|-----0-------0-------0--------0---------3---------2--------0-----|
B|--------------------------2-----2----3--3-----2-----0--3-----3---|
G|---2---2---0---0---0---0----2-----0--0-----0----0--------0-----0-|
D|----------------------------------------2------------------------|
A|-2-------1----------------0----------2--------0------------------|
E|-----------------3-------------------------------------3---------|

                         Ten mi amor,
E|-----0----------0----------0--------0--------0--------0------|
B|-3-----3----3-----3-------------------------------------3----|
G|---2-----0----2-----0----2---2----2---0----2---0----2-----0--|
D|-----------------------0-------------------------------------|
A|------------0-------------------3--------3--------2----------|
E|-2-----------------------------------------------------------|

   Canción no pensó en otro fin                 que terminar
E|-----0--------2--------0--------------2-----------------0-------|
B|--------------------------------0h2h3-----3--------3--------3---|
G|---2---0----2---2----2---0----0---------4---4----0---0----2---0-|
D|----------0-----------------------------------------------------|
A|-1-----------------0--------2---------2-----------------0-------|
E|-----------------------------------------------3----------------|

                           Sonreír…             …Podía hacerte sonreír
E|---------------------0--------------------------------0-----------0h2-|
B|-2-5--3-------3--3-----3----2-5---5---4------3----3--------3--3-------|
G|-2-5----0---0------2-----0--2-2---2---2----0---0----2---0-------------|
D|--------------------------------2---2---------------------------0-----|
A|--------------------------------------------------------------0-------|
E|-2----3---3------2----------2------------3--------2--------0----------|

A ver si podía hacerte sonreír.
E|--------------0---------------------------------------------0h2--|
B|-----3----3--------2-5--3--3--3--3----3----2h0h2----3------2-----|
G|---0---0----2---0--2-2--0--2--0--2------0--------2----3---3------|
D|----------------------------------------------------0------------|
A|-------------------------------------------0---------------------|
E|-3--------2--------2----3--2--0--2--3----------------------------|

Colaboração e revisão:
  • miguel
332 exibições
    • ½ Tom
    • A
    • Bb
    • B
    • C
    • Db
    • D
    • Eb
    • E
    • F
    • F#
    • G
    • Ab
  • Adicionar à lista

    0 comentários

    Ver todos os comentários

    Conseguiu tocar?

    0 Tocaram 0 Ainda não

    Grave um vídeo tocando Mis Hojas De Noviembre e nos envie!

    00:00 / 00:00
    outros vídeos desta música
    repetir qualidade Automático
    Outros vídeos desta música
    00:00 / 00:00
    Automático

    Cifra Club Pro

    Aproveite o Cifra Club com benefícios exclusivos e sem anúncios
    Cifra Club Pro
    Aproveite o Cifra Club com benefícios exclusivos e sem anúncios
    OK