Cifra Club

Alfabeto Mágico de Denalle

De$lucro

Cifra: Principal (violão e guitarra)
tom: F
Guitarra 1:
      F                        C
E|------------------------|--------------------------|
B|------------------------|--------------------------|
G|-----2-5-3-2------5-3-2-|-----2-5-3-2------2-5-3-2-|
D|-3-3----------3-3-------|--------------------------|
A|------------------------|-3-3----------3-3---------|
E|------------------------|--------------------------|
     Dm                        Bb
E|------------------------|--------------------------|
B|------------------------|--------------------------|
G|-----2-5-3-2------5-3-2-|-----2-5-3-2------2-5-3-2-|
D|-0-0----------0-0-------|--------------------------|
A|------------------------|-1-1----------1-1---------|
E|------------------------|--------------------------|

Guitarra 2:
E|-8-8-6-6-5----|5-5h8-6-5-6---3-1-0-1-||-3-1-0-1---|
B|-----------5--|----------------------||-----------|
G|--------------|----------------------||-----------|
D|--------------|----------------------||-----------|
A|--------------|----------------------||-----------|
E|--------------|----------------------||-----------|

Intro: F  C  Dm  Bb
E|----------|
B|-3-1-0-1--|
G|----------|
D|----------|
A|----------|
E|----------|

F
Baby,eu não vou mais cantar
           C
não vou chorar,não vou lutar
          Dm
não vou sonhar,não vou voar
         Bb
não vou amar...

Só me resta colar

F
Vai que se eu colo, você não cola
C
ah,mais vê se cola, pra ver se cola
Dm
Dá-me teu sorriso, e me namora
Bb                           C
Fundamental é ter o que nem sempre é fundamental

F
Se não tem jeito, eu dou um jeito
C
Ah,pelo teu jeito,eu me ajeito
Dm
e como tudo que um dia foi e não será igual
Bb                        C
e o medo do normal nos guiará à perfeição

( Refrão )

   F
eu sei
ahh
                  C
mas o tempo vai saber
               Dm
me levar até você
                       Bb    C
ai,meu deus,faltou o ''D''
            F
denalle,eu sei que você quer
                C
que eu repita mais teu nome no refrão
                 Dm
me perdoa,faltou rima na canção
                  Bb     C
eu só queria te dizer...

( F  C  Dm  Bb )

Vasculhando nesse mundo meu
tao seu
é que eu sei que o nosso encontro não tardia
perdão, mais uma canção clichê!
eu quero relvas para mim, um paraíso pra nós dois

       F             C                  Dm
Quando ela chegar, o sol vai parar de girar,eu sei!
    Bb                  C
mas há quem diga que o sol não gira!
F                C
Vai perceber que tudo e talvez
     Dm       Bb C
seja algo além

       F             C                  Dm
Quando ela chegar, o sol vai parar de girar,eu sei!
    Bb                  C
mas há quem diga que o sol não gira!
F                C                   Dm         Bb    C
Vai perceber que tudo talvez gire em torno de alguem

       F             C                  Dm
Quando ela chegar, o sol vai parar de girar,eu sei!
    Bb                  C
mas há quem diga que o sol não gira!
F                  C                Dm       Bb
Vai perceber que o amor talvez seja algo além de se apaixonar
Solo:
E|---------------|-------------|---------------|-------------|
B|---------------|-------------|---------------|-------------|
G|---------------|-------------|---------------|-------------|
D|----7-10-8-7---|----10-8-7---|----7-10-8-7---|----10-8-7---|
A|8-8------------|8-8----------|---------------|-------------|
E|---------------|-------------|8-8------------|8-8----------|


Refrão:
F
AHH
(olha só)
                  C
mas o tempo vai saber
(denalle tá chegando)
               Dm
me levar até você
(olha só)
                        Bb   C
ai,meu deus, faltou o ''D''
(denalle tá chegando)
            F
Denalle, eu sei que você quer
(olha só)
                    C
mais um pouco de biscoito com café
(denalle tá chegando)
                    Dm
ou qualquer outro motivo pra ficar
(olha só)
                  Bb
eu só queria te dizer...
(denalle tá chegando)
00:00 / 00:00
Outros vídeos desta música
Repetir
Outros vídeos desta música
Composição de Sandro Aruthyel Regueira
Colaboração e revisão:
  • Italo Sà
  • Pedro Correia
  • Liana Freitas
4.671 exibições
    • ½ Tom
    • A
    • Bb
    • B
    • C
    • Db
    • D
    • Eb
    • E
    • F
    • F#
    • G
    • Ab
  • Adicionar à lista

    0 comentários

    Ver todos os comentários

    Entre para oCifra Club PRO

    Tenha acesso a benefícios exclusivos no App e no Site

    • Chega de anúncios

    • Prioridade de compra em lançamentos

    • Mais recursos no app do Afinador

    • Atendimento Prioritário

    • Descontos nos produtos Cifra Club

    • Ajude a produzir mais conteúdo

    00:00 / 00:00

    Cifra Club Pro

    Aproveite o Cifra Club com benefícios exclusivos e sem anúncios
    Cifra Club Pro
    Aproveite o Cifra Club com benefícios exclusivos e sem anúncios
    OK