Cifra Club

Aprenda

De mí enamórate

Delux

Cifra: Principal (violão e guitarra)
tom: F
E|-------------------------------------------------------------|
B|-------------------------------------------------------------|
G|----------3---3-3-2-0-------------------2----3-2--0----------|
D|--0-2-3-0--------------3-3s5----0-2-3-0-------------0--------|
A|-------------------------------------------------------------|
E|-------------------------------------------------------------|

E|--------------------------------------------------------------|
B|--------------------------------------------------------------|
G|---------3--3-3--5--0-----------------------------------------|
D|-0-2-3-0----------------3-3-2-0-------------------------------|
A|---------------------------------3--3s5-----------------------|
E|--------------------------------------------------------------|



       Bb5                     C5
Para realizar, mi sueño que haré
               A5               D5
por dónde empezar, cómo realizaré
               Bb5
tú tan lejano amor
                C5
si lo único que sé
                    A5
es que ya no sé quién soy
                 D5
de donde vengo y voy.
          Bb5                     C5
Desde que te ví, mi identidad perdí
              A5                  D5
en mi cabeza estás, sólo tú y nadie más
                 Bb5
y me duele al pensar
              C5               D5
que mía no seras de mí enamorate.
           C5           A5              F5
Mira qué el día que de mí te enamores yo
            B5                  E5
voy a ser felíz y con puro amor
         A5               C5
te protegeré y será un honor
         G5                   C5
dedicarme a tí eso quiera Diós.
                           A5
El día que de mí te enamores tú
          F5                    B5
voy a ver por fín de una vez la luz
           E5               A5
y me desharé de esta soledad
             C5            D5
de esta exclavitúd desde el día en que...

Tú de mí amor te enamores tú

veré por fín de una vez la luz.


E|-------------------------------------------------------------|
B|-------------------------------------------------------------|
G|----------3---3-3-2-0-------------------2----3-2--0----------|
D|--0-2-3-0--------------3-3s5----0-2-3-0-------------0--------|
A|-------------------------------------------------------------|
E|-------------------------------------------------------------|

E|--------------------------------------------------------------|
B|--------------------------------------------------------------|
G|---------3--3-3--5--0-----------------------------------------|
D|-0-2-3-0----------------3-3-2-0-------------------------------|
A|---------------------------------3--3s5-----------------------|
E|--------------------------------------------------------------|


         Bb5                     C5
Desde que te ví, mi identidad perdí
              A5                  D5
en mi cabeza estás, sólo tú y nadie más
                 Bb5
y me duele al pensar
              C5               D5
que mía no seras de mí enamorate.
           C5           A5              F5
Mira qué el día que de mí te enamores yo
            B5                  E5
voy a ser felíz y con puro amor
         A5               C5
te protegeré y será un honor
         G5                   C5
dedicarme a tí eso quiera Diós.
                           A5
El día que de mí te enamores tú
          F5                    B5
voy a ver por fín de una vez la luz
           E5               A5
y me desharé de esta soledad
             C5            D5
de esta exclavitúd desde el día en que...

E|-------------------------------------------------------------|
B|-------------------------------------------------------------|
G|----------3---3-3-2-0----------------------------------------|
D|--0-2-3-0--------------3-3s5---------------------------------|
A|-------------------------------------------------------------|
E|-------------------------------------------------------------|


ezpero k lez guzte
i zi no
p0ez ni pdo =B
xidooo!
Composição de Juan Gabriel
    • ½ Tom
    • A
    • Bb
    • B
    • C
    • Db
    • D
    • Eb
    • E
    • F
    • F#
    • G
    • Ab
  • Adicionar à lista

    0 comentários

    Ver todos os comentários

    Conseguiu tocar?

    0 Tocaram 0 Ainda não

    Grave um vídeo tocando De mí enamórate e nos envie!

    00:00 / 00:00
    Outros vídeos desta música
    Repetir Qualidade Automático
    Outros vídeos desta música
    00:00 / 00:00
    Automático

    Cifra Club Pro

    Aproveite o Cifra Club com benefícios exclusivos e sem anúncios
    Cifra Club Pro
    Aproveite o Cifra Club com benefícios exclusivos e sem anúncios
    OK