Cifra Club

Aprenda

Cool For The Summer

Demi Lovato

Cifra: Principal (violão e guitarra)
tom: Ab (forma dos acordes no tom de G) Capotraste na 1ª casa
Introdução - Dedilhado:

Parte 1 de 3
E|---2p0---0---0--------------------------------------|
B|-------3---3----------------------------------------|
G|-4--------------------------------------------------|
D|----------------------------------------------------|
A|----------------------------------------------------|
E|----------------------------------------------------|

Parte 2 de 3
E|---2p0---0---0----2p0---0---0-----------------------|
B|-------3---3----------3---3-------------------------|
G|-4--------------4-----------------------------------|
D|----------------------------------------------------|
A|----------------------------------------------------|
E|-3--------------0-----------------------------------|

Parte 3 de 3
E|---2p0---0---0----2p0---0---0-----------------------|
B|-------3---3----------3---3-------------------------|
G|-4--------------4-----------------------------------|
D|----------------------------------------------------|
A|-2--------------2-0---------------------------------|
E|----------------------------------------------------|

Primeira Parte:

 G7M
Tell me what you want
          Em7
What you like

It's okay
Bm7(11)                   D9/A
I'm a little curious too

 G7M
Tell me if it's wrong
         Em7
If it's right

I don't care
Bm7(11)                   D9/A
I can keep a secret, can you?

        G7M
Got my mind on your body
          Em7
And your body on my mind
       Bm7(11)
Got a taste for the cherry
                       D9/A
I just need to take a bite

Pré-refrão:

G7M
    Don't tell your mother
Em7
    Kiss one another
Bm7(11)
        Die for each other
       D9/A
We're cool for the summer

Interlúdio 4x:
    Bm7(11)
E|----------------------------------------------------|
B|---3------------------------------------------------|
G|---2------------------------------------------------|
D|---0--4p2p0-2-0-2-----------------------------------|
A|-2-2------------------------------------------------|
E|----------------------------------------------------|

Refrão:

G7M          Em7
    Take me down into your paradise
Bm7(11)
        Don't be scared
                 D9/A
'Cause I'm your body type
G7M       Em7
    Just something that we wanna try
Bm7(11)
    'Cause you and I
       D9/A
We're cool for the summer

Segunda Parte:

 G7M                    Em7
Tell me if I won, if I did

What's my prize?
Bm7(11)                     D9/A
I just wanna play with you too

 G7M
Even if they judge
         Em7
Fuck it, I'll do the time
Bm7(11)                          D9/A
I just wanna have some fun with you

        G7M
Got my mind on your body
          Em7
And your body on my mind
       Bm7(11)
Got a taste for the cherry
                       D9/A
I just need to take a bite

Pré-refrão:

G7M
    Don't tell your mother
Em7
    Kiss one another
Bm7(11)
        Die for each other
       D9/A
We're cool for the summer

Interlúdio 4x:
      Bm7(11)
E|----------------------------------------------------|
B|---3------------------------------------------------|
G|---2------------------------------------------------|
D|---0--4p2p0-2-0-2-----------------------------------|
A|-2-2------------------------------------------------|
E|----------------------------------------------------|

Refrão:

G7M          Em7
    Take me down into your paradise
Bm7(11)
        Don't be scared
                 D9/A
'Cause I'm your body type
G7M       Em7
    Just something that we wanna try
Bm7(11)
    'Cause you and I
       D9/A
We're cool for the summer
G7M  Em7
         We're cool for the summer
Bm7(11)        D9/A
        We're cool for the summer

Pré-refrão – Dedilhado Intro:

Got my mind on your body
And your body on my mind
Got a taste for the cherry
I just need to take a bite

Primeira Parte (Dedilhado Intro):

Parte 1 de 3
E|---2p0---0---0--------------------------------------|
B|-------3---3----------------------------------------|
G|-4--------------------------------------------------|
D|----------------------------------------------------|
A|----------------------------------------------------|
E|----------------------------------------------------|

Parte 2 de 3
E|---2p0---0---0----2p0---0---0-----------------------|
B|-------3---3----------3---3-------------------------|
G|-4--------------4-----------------------------------|
D|----------------------------------------------------|
A|----------------------------------------------------|
E|-3--------------0-----------------------------------|

Parte 3 de 3
E|---2p0---0---0----2p0---0---0-----------------------|
B|-------3---3----------3---3-------------------------|
G|-4--------------4-----------------------------------|
D|----------------------------------------------------|
A|-2--------------2-0---------------------------------|
E|----------------------------------------------------|

Repete Parte 2 de 3
E|---2p0---0---0----2p0---0---0-----------------------|
B|-------3---3----------3---3-------------------------|
G|-4--------------4-----------------------------------|
D|----------------------------------------------------|
A|----------------------------------------------------|
E|-3--------------0-----------------------------------|

Repete Parte 3 de 3
E|---2p0---0---0----2p0---0---0-----------------------|
B|-------3---3----------3---3-------------------------|
G|-4--------------4-----------------------------------|
D|----------------------------------------------------|
A|-2--------------2-0---------------------------------|
E|----------------------------------------------------|

Repete Parte 2 de 3
E|---2p0---0---0----2p0---0---0-----------------------|
B|-------3---3----------3---3-------------------------|
G|-4--------------4-----------------------------------|
D|----------------------------------------------------|
A|----------------------------------------------------|
E|-3--------------0-----------------------------------|

Repete Parte 3 de 3
E|---2p0---0---0----2p0---0---0-----------------------|
B|-------3---3----------3---3-------------------------|
G|-4--------------4-----------------------------------|
D|----------------------------------------------------|
A|-2--------------2-0---------------------------------|
E|----------------------------------------------------|

Refrão:

G7M          Em7
    Take me down into your paradise
Bm7(11)
        Don't be scared
                 D9/A
'Cause I'm your body type
G7M       Em7
    Just something that we wanna try
Bm7(11)
    'Cause you and I
       D9/A
We're cool for the summer

G7M          Em7
    Take me down into your paradise
Bm7(11)
        Don't be scared
                 D9/A
'Cause I'm your body type
G7M       Em7
    Just something that we wanna try
Bm7(11)
    'Cause you and I
       D9/A
We're cool for the summer

Interlúdio 4x:
     Bm7(11)
E|----------------------------------------------------|
B|---3------------------------------------------------|
G|---2------------------------------------------------|
D|---0--4p2p0-2-0-2-----------------------------------|
A|-2-2------------------------------------------------|
E|----------------------------------------------------|

We're cool for the summer
Composição de Alexander Kronlund / Ali Payami / Demi Lovato / Max Martin / Savan Kotecha
104.166 exibições
  • Simplificar cifra
    • ½ Tom
    • A
    • Bb
    • B
    • C
    • Db
    • D
    • Eb
    • E
    • F
    • F#
    • G
    • Ab
  • Adicionar à lista

    0 comentários

    Ver todos os comentários

    Conseguiu tocar?

    13 Tocaram 5 Ainda não

    Grave um vídeo tocando Cool For The Summer e nos envie!

    00:00 / 00:00
    Outros vídeos desta música
    Repetir Qualidade Automático
    Outros vídeos desta música
    00:00 / 00:00
    Automático
    Capítulos
    • Tocando a música
    • Dicas Iniciais / Equipamentos
    • Tocando a Introdução
    • Introdução - Parte 1 de 3
    • Introdução - Parte 2 de 3
    • Introdução - Parte 3 de 3
    • Acordes da Primeira Parte
    • Tocando a Primeira Parte
    • Ritmo da Primeira Parte
    • Dicas 2
    • Tocando Pré-Refrão e Interlúdio
    • Interlúdio
    • Tocando o Refrão
    • Ritmo do Refrão
    • Dicas 3
    • Tocando Segunda Parte - Refrão
    • Tocando Introdução
    • Encerramento
    • Ficha Técnica

    Cifra Club Pro

    Aproveite o Cifra Club com benefícios exclusivos e sem anúncios
    Cifra Club Pro
    Aproveite o Cifra Club com benefícios exclusivos e sem anúncios
    OK