Cifra Club

Barrel Of a Gun

Depeche Mode

Cifra: Principal (violão e guitarra)
tom: F
(bridge)
    Em
    what do you expect to be?
    what is it you want?
    whatever you've planned for me
  A              Gm F#   Em
    i'm not the one

(chorus)
Em                  A Gm
    whatever i've done
F
    i've been staring down the barrel of a gun
C B Em

(verse) ( 0 40 )
(hear the song for the right rhythm)
e|----------------------------------------------------------------|
b|----------------------------------------------------------------|
g|-----0-h-2-----0-h-2-----0-h-2-----0-h-2------------------------|
d|-----0-h-2-----0-h-2-----0-h-2-----0-h-2------------------------|
a|----------------------------------------------------------------|
e|----------------------------------------------------------------|

(bridge I) ( 1 16 )
e|----------------------------------------------------------------|
b|----------------------------------------------------------------|
g|---------------------------------2~-----------------------------|
d|------2~-------2~-------2~-------2~-----------------------------|
a|------2~-------2~-------2~-------0~-----------------------------|
e|------0~-------0~-------0~--------------------------------------|

(bridge II) ( 2 48 )
e|----------------------------------------------------------------|
b|----------------------------------------------------------------|
g|---------------------------------2~----------------2~-----------|
d|------2~-------2~-------2~-------2~------5~--------2~-----------|
a|------2~-------2~-------2~-------0~------5~--------0~-----------|
e|------0~-------0~-------0~---------------3~--/1~----------------|

(chorus) ( 3 11 )
e|---------------------------------------------------------------------|
b|---------------------------------------------------------------------|
g|---------------------------------------------------------------------|
d|---------------------------------------------------------------------|
a|---------------------------------------/3~--------/2~----------------|
e|------/5~--------/3~--------/1~------------------------------0~------|

* = palm mute
x = mute string
~ = hold
/ = slide
Composição de Martin Gore
883 exibições
    • ½ Tom
    • A
    • Bb
    • B
    • C
    • Db
    • D
    • Eb
    • E
    • F
    • F#
    • G
    • Ab
  • Adicionar à lista

    0 comentários

    Ver todos os comentários

    Conseguiu tocar?

    0 Tocaram 0 Ainda não

    Grave um vídeo tocando Barrel Of a Gun e nos envie!

    00:00 / 00:00
    Outros vídeos desta música
    Repetir Qualidade Automático
    Outros vídeos desta música
    00:00 / 00:00
    Automático

    Cifra Club Pro

    Aproveite o Cifra Club com benefícios exclusivos e sem anúncios
    Cifra Club Pro
    Aproveite o Cifra Club com benefícios exclusivos e sem anúncios
    OK