Cifra Club

Aprenda

Desculpa

Depois do Fim

Cifra: Principal (violão e guitarra)
Tom: D
Intro: (Riff + Base)

Base: D5  D5  B5  G5
 D5(*)
E|----------|
B|----------|
G|---7------|
D|---7------|
A|---4------|
E|----------|

Riff:
E|----------------------------------------------------------|
B|----------------------------------------------------------|
G|--77777---14-12-11-12-11---66666---14--12--11--12--11-----|
D|----------------------------------------------------------|
A|--55555---12-10-9--10--9---44444---12--10--9---10--9------|
E|----------------------------------------------------------|

E|----------------------------------------------------------|
B|----------------------------------------------------------|
G|--44444(...)-------------12--11--9--11-9--7---------------|
D|----------------------------------------------------------|
A|--22222(...)-5555555-----10--9---7--9--7--5---------------|
E|-------------3333333--------------------------------------|

D5                   D5(*)
Não sei o que vai ser de mim daqui pra frente
B5              G5
Não sei como vou agüentar
D5            D5(*)
O erro foi meu, eu sei
B5                 G5
Mas vou correr atrás e vou tentar me desculpar

B5               A5                 G5
Minhas atitudes te fizeram acreditar
                  A5
Que tudo foi mentira, que você se enganou

D5                  A5
Desculpa por te fazer sofrer
                   G5
Desculpa por te fazer chorar
                  A5
Desculpa por não ser o que você esperava ah
D5                   A5
Desculpa por te fazer gostar de mim
    G5             A5
Eu juro que não era pra ter acabado assim
D5                     A5
Desculpa se te machuquei
                      G5
Se fiz algumas coisas escondidas
A5                                      (D5 D5)
Só me desculpa por ter entrado na sua vida

D5               D5(*)
Eu sei que é difícil encarar a traição
B5                 G5
E sei que o que eu fiz também não tem explicação
D5              D5(*)
Não é nada fácil pra você acreditar
B5                   G5
Que sinto sua falta, isso não posso negar

B5               A5                G5
Quis te machucar, quis te humilhar
               A5
E te dou razão por começar a me odiar

D5                  A5
Desculpa por te fazer sofrer
                   G5
Desculpa por te fazer chorar
                  A5
Desculpa por não ser o que você esperava ah
D5                   A5
Desculpa por te fazer gostar de mim
    G5             A5
Eu juro que não era pra ter acabado assim
D5                     A5
Desculpa se te machuquei
                      G5
Se fiz algumas coisas escondidas
A5                                      (D5 D5)
Só me desculpa por ter entrado na sua vida

 Base: D5  D5(*)  B5  G5
E|----------------------------------------------------------|
B|----------------------------------------------------------|
G|--77777---14-12-11-12-11---66666---14--12--11--12--11-----|
D|----------------------------------------------------------|
A|--55555---12-10-9--10--9---44444---12--10--9---10--9------|
E|----------------------------------------------------------|

E|----------------------------------------------------------|
B|----------------------------------------------------------|
G|--44444(...)-------------12--11--9--11-9--7---------------|
D|----------------------------------------------------------|
A|--22222(...)-5555555-----10--9---7--9--7--5---------------|
E|-------------3333333--------------------------------------|

D5                  A5
Desculpa por te fazer sofrer
                   G5
Desculpa por te fazer chorar
                  A5
Desculpa por não ser o que você esperava ah
D5                   A5
Desculpa por te fazer gostar de mim
    G5             A5
Eu juro que não era pra ter acabado assim
D5                     A5
Desculpa se te machuquei
                      G5
Se fiz algumas coisas escondidas
A5                                      (D5 D5)
Só me desculpa por ter entrado na sua vida
Composição de Evy
Colaboração e revisão:
  • Edw.
1.281 exibições
    • ½ Tom
    • A
    • Bb
    • B
    • C
    • Db
    • D
    • Eb
    • E
    • F
    • F#
    • G
    • Ab
  • Adicionar à lista

    0 comentários

    Mostrar mais comentários

    Conseguiu tocar?

    1 Tocaram 0 Ainda não

    Grave um vídeo tocando Desculpa e mande pra gente!

    00:00 / 00:00
    outros vídeos desta música
    repetir qualidade Automático
    Outros vídeos desta música
    00:00 / 00:00
    Automático
    OK