Le Vent Nous Portera

Noir Désir

Composição de: Bertrand Cantat
tom: D
A musica e facil apenas dois acordes >> (Em) (D)
segue a sequencia a baixo:



         Em             D
----------7------------5-----
----------8------------7-----
----------9------------7-----
----------9------------7-----
----------7------------5-----
----------7------------5-----



Solinho da Musica :

e|-7-7-----7-7-----7-7-----7-8----7-7-----7-7----7-7-----5--3--5-5--2-----5-5--2-----5-5--2-----5---8
B|----8-5------8-5------8-5----------8-5-----8-5-----8-5---------------3----------3------------3----
G|---------------------------------------------------------------------------------------------------


Bom ta aee a musica a banda ja nao e tao conhecida mais tem um som massa
Página 1 / 1

Letras e título
Acordes e artista

resetar configurações
OK