Cifra Club

Saci

Detonator

Cifra: Principal (violão e guitarra)
tom: F#
Afinação: Eb Ab Db Gb Bb Eb

|Riff 1|
P.M. . . . . . . . . . . . . . . . . . . . . . . . . . . 
Eb|------------------------------------------------------
Bb|------------------------------------------------------
Gb|------------------------------------------------------
Db|------------------------------------------------------
Ab|------------------------------------------------------
Eb|--0---12--12---0--0---12---0--0---12--12---0--0---12--(3x)

|Riff 2|
Eb|----------------------------------------------------------------------
Bb|----------------------------------------------------------------------
Gb|----------------------------------------------------------------------
Db|----\2-------3--------5--------3---------2--------3--------6-------7--
Ab|----\2-------3--------5--------3---------2--------3--------6-------7--
Eb|----\0-------1--------3--------1---------0--------1--------4-------5--
   (enquanto o Riff 1 continua tocando)


Versos
|Riff 1| (3x)

|Riff 3|
Eb|------------------------------------------------------------------------
Bb|------------------------------------------------------------------------
Gb|------------------------------------------------------------------------
Db|------------------------------2----2----2-----------------------------
Ab|------------------------------2----2----2-----------------------------
Eb|--0---/12--/12---0--0---/12---0-0--0-0--0-------------------------------
P.M. .                             .    .

|Riff 4|
P.M.     . . . .       . . . . . .           . . . .       . . . . . . 
Eb|---------------------------------------------------------------------
Bb|---------------------------------------------------------------------
Gb|--4-------------4---------------------5-------------5----------------
Db|--4-------------4---------------(3x)--5-------------5----------------
Ab|--2---2-2-2-2---2---2-2-2-2-2-2-------3---3-3-3-3---3---3-3-3-3-3-3--
Eb|---------------------------------------------------------------------(2x)

|Riff 5|
Eb|---------------------------------------------
Bb|---------------------------------------------
Gb|---------------------------------------------
Db|---------------------------------------------
Ab|----2---/7--/7---2--2---/7---2--2---/7--/7---
Eb|----0------------0--0--------0--0------------

Eb|--------------------------------------------------
Bb|--------------------------------------------------
Gb|--------------------------------------------------
Db|----------------------------------------3----5----
Ab|--2--2---/7---2---/7--/7---2--2---/7----3----5----
Eb|--0--0--------0------------0--0---------1----3----

Eb|-------------------------------------------
Bb|-------------------------------------------
Gb|-------------------------------------------
Db|-------------------------------------------
Ab|----2---/7--/7---2--2---/7---2--2---/7--/7-
Eb|----0------------0--0--------0--0----------

Eb|---------------------------------------------
Bb|---------------------------------------------
Gb|---------------------------------------------
Db|----------------------------------------3----
Ab|--2--2---/7---2---/7--/7---2--2---/7----3----
Eb|--0--0--------0------------0--0---------1----

|Riff 1| (2x)
|Riff 2| (somente metade)


|Riff 1| (4x)
|Riff 3|
|Riff 4| (2x)
|Riff 5|

(Solo 1)
Base: Riff 4
(Solo 2)
Base: Riff 5

Variação do Riff 1:
Eb|-------------------------------------------------------
Bb|-------------------------------------------------------
Gb|-------------------------------------------------------
Db|-------------------------------------------------------
Ab|------/7--/7----------/7----------/7--/7-----------/7--
Eb|--0-------------0--0--------0--0-------------0--0------(3x)
|Riff 3|
|Riff 4|
|Riff 5| (2x)
Composição de Detonator
Colaboração e revisão:
  • Artur Souza
2.135 exibições
    • ½ Tom
    • A
    • Bb
    • B
    • C
    • Db
    • D
    • Eb
    • E
    • F
    • F#
    • G
    • Ab
  • Adicionar à lista

    0 comentários

    Ver todos os comentários

    Conseguiu tocar?

    0 Tocaram 0 Ainda não

    Grave um vídeo tocando Saci e nos envie!

    00:00 / 00:00
    Outros vídeos desta música
    Repetir Qualidade Automático
    Outros vídeos desta música
    00:00 / 00:00
    Automático

    Cifra Club Pro

    Aproveite o Cifra Club com benefícios exclusivos e sem anúncios
    Cifra Club Pro
    Aproveite o Cifra Club com benefícios exclusivos e sem anúncios
    OK