Dia Comum

Detonautas

Composição de: DJ Cleston / Fábio Brasil / Renato Rocha / Rodrigo Netto / Tico Santa Cruz
tom: D
[Intro]

E|-----------------|--------|----------------------|
B|-----------------|--------|----------------------|
G|-----------(7)---|--(7)---|--6-6-6--7-7-7--(4)---|
D|-3h4-(4)---(4)---|--(4)---|--x-x-x--x-x-x--(x)---|
A|-----------------|--(5)---|--x-x-x--x-x-x--(x)---|
E|-----------------|--------|--3-3-3--3-3-3--(3)---|

 D
Por que você se faz o que não pode ser
 G
Muito mais forte inofensivo?
 D
Ta complicado te dizer alguma coisa
 G
Você não ouve, não me responde
 F#m      G
Já se perdeu
   F#m
Ficou pra trás
         G     D         G
Como um dia comum (tchu ruru ruru)
 Bm                    Bb       D       G
Nada que eu faça te importa (tchu ruru ruru)
 Bb              A
Nada te importa mais, nada mudou

 D
Por que você se faz o que não pode ser
 G
Muito mais forte inofensivo?
 D
Ta complicado te dizer alguma coisa
 G
Você não ouve, não me responde
 F#m      G
Já se perdeu
   F#m
Ficou pra trás
         G     D              G
Como um dia comum (tchu ruru ruru)
 Bm                    Bb       D         G
Nada que eu faça te importa (tchu ruru ruru)
 Bb              A
Nada te importa mais, nada mudou

[Solo]  D  G  Bm  G

E|--------------------------|
B|---------10---------------|
G|---7-6-7----7-------------|
D|--------------------------|
A|--------------------------|
E|--------------------------|
Página 1 / 1

Letras e título
Acordes e artista

resetar configurações
OK