Notificações Amigos pendentes

      Detonautas

      O Dia Que Não Terminou

      1.041.810 exibições
      Tom: C
      
      Intro 2x: Am  F7M/C  G6
      E|---------------------------|
      B|------10\8~----------------|
      G|-7/9~-------9\5-2/7~-7\p0--|  (2x)
      D|---------------------------|
      A|---------------------------|
      E|---------------------------|
      
      
      Primeira parte:
                Am               F7M/C
      Me sinto tão estranho aqui
                          G6
      Que mal posso me mexer irmão
               Am           F7M/C
      No meio dessa confusão
                         G6
      Não consigo encontrar ninguém
            Am        F7M/C     G6
      Onde foi que você se meteu então?
                            F7M/C
      Tô tentando te encontrar
                           Am
      Tô tentando me entender
          G6
      As coisas são assim
      (violão 2)
      
        Am9/E
      E|-0------------------------------|
      B|-5----------1---------3-------3-|
      G|-5------0---------0-------0-----|
      D|-7----3---3---3/5---5---5---5---|
      A|-7------------------------------|
      E|--------------------------------|
      
      
                           G
      E|-------------------3------------|
      B|-------1-------1---3------------|
      G|---0-------0-------0------------|
      D|-3---3---2---2-----0------------|
      A|-------------------2------------|
      E|-------------------3------------|
      
      
      Refrão:
       Am                    F7M/C            G
      Meus olhos grandes de medo revelam a solução
      
      A solução
       Am                 F7M/C               G
      Meu coração tem segredos que movem a solidão
      A solidão
      
      ( Am  F7M/C  G6 )
      (violão 2)
      
      E|---------------------------|
      B|------10\8~----------------|
      G|-7/9~-------9\5-2/7~-7\p0--|
      D|---------------------------|  (2x)
      A|---------------------------|
      E|---------------------------|
      
      
                Am               F7M/C
      Me sinto tão estranho aqui
                      G6
      Diferente de você irmão
             Am                F7M/C
      A sua forma em distorção
                          G6
      Não pareço com ninguém sei lá
               Am          F7M/C              G6
      Pois eu sei que nós temos o mesmo destino então
                            F7M/C
      Tô tentando me encontrar
                          Am
      To entando me entender
            G
      Por que tá tudo assim?
      
      E|---------------------------------------------------|
      B|---10-8-10---10-8-10---10-8-10---10-8-10---10-8-10-|
      G|-9---------9---------9---------9---------9---------|
      D|---------------------------------------------------|
      A|---------------------------------------------------|
      E|---------------------------------------------------|
      
      
      E|----------------------8-8-7------------------------|
      B|---10-8-10---10-8-10--------10-8-------------------|
      G|-9---------9---------------------------------------|
      D|---------------------------------------------------|
      A|---------------------------------------------------|
      E|---------------------------------------------------|
      
      
      Refrão:
       Am                    F7M/C            G
      Meus olhos grandes de medo revelam a solução
      
      A solução
       Am                 F7M/C               G
      Meu coração tem segredos que movem a solidão
      A solidão
      
      ( Am  F7M/C  G6 ) (2x)
      (violão 2)
      
      E|---------------------------|
      B|------10\8~----------------|
      G|-7/9~-------9\5-2/7~-7\p0--|
      D|---------------------------|   (2x)
      A|---------------------------|
      E|---------------------------|
      
      
      Am                      F7M/C
        Quem de nós vai insistir e não
      Am                      F7M/C
        Se entregar sem resistir então
      Am                        F7M/C
        Já não há mais pra onde ir
      G                    F7M/C
        Se entregar à solidão e não
      
      E|---------------------------------------------------|
      B|---------------------------------------------------|
      G|---------------------------------------------------|
      D|----------------------------------7-7-7-7-7--------|
      A|-3-3-3-3-3-3-3-3-3-3-3-3/7-7-7-7--8-8-8-8-8--------|
      E|-5-5-5-5-5-5-5-5-5-5-5-5/8-8-8-8-------------------|
      
      
      E|-8-7-----------------|
      B|-----10-8-8h10-------|
      G|---------------7h9~--|
      D|---------------------|
      A|---------------------|
      E|---------------------|
      
      
      E|---------------------------------------------------|
      B|---------------------------------------------------|
      G|---------------------------------------------------|
      D|----------------------------------7-7-7-7-7--------|
      A|-0-0-0-0-3-3-3-3-3-3-3-3/7-7-7-7--8-8-8-8-8--------|
      E|---------5-5-5-5-5-5-5-5/8-8-8-8-------------------|
      
      
      Agora a gente faz a mesma coisa....
      
      E|-----------------------------------|
      B|-----------------------------------|
      G|-----------------------------------|
      D|-----------------------------------|
      A|-3-3-3-3-3-3-3-3-3-3-3-3/7-7-7-7---|
      E|-5-5-5-5-5-5-5-5-5-5-5-5/8-8-8-8---|
      
      
      E|-----------------------------------|
      B|-----------------------------------|
      G|-----------------------------------|
      D|-----------------------------------|
      A|-3-3-3-3-3-3-3-3-3-3-3-3-3-3-3-3---|
      E|-1-1-1-1-1-1-1-1-1-1-1-1-1-1-1-1---|
      
      
      E|-----------------------------------|
      B|-----------------------------------|
      G|-----------------------------------|
      D|-----------------------------------|
      A|-2-2-2-2-2-2-2-2-2-2-2-2/7-7-7-7---|
      E|-3-3-3-3-3-3-3-3-3-3-3-3/8-8-8-8---|
      
      

      Comentários 50

      140 .
      • haroldo haroldo: Em 17/08/2016 23:57

        Será que não tem essa música sendo música oficial de estudo?

      • Emanuelle Emanuelle: Em 14/07/2015 23:49

        qual o ritmo ??

      • litorart.com.br litorart.com.br: Em 29/01/2015 11:42

        Ajuda muito mesmo . fico pensando quando comecei com violão...internet era só para quem tinha grana ..tinha que me virar.

      • Gaby Gaby: Em 23/11/2014 12:46

        muito boa.

      • Alisson Alisson: Em 27/09/2013 19:43

        musica da minha infancia

      • eduardo eduardo: Em 25/09/2013 08:12

        muito fodastico ... vei o fofão todo inspirado....rs..^^

      • vandeilson.julio vandeilson.julio: Em 02/09/2013 18:39

        gostei peguei fácil

      • eduanjus eduanjus: Em 22/06/2013 14:30

        notas meio difíceis pra mim mas da pra improvisar com outras......vlw Cifras!!!

      • Eduardo Eduardo: Em 05/04/2013 23:28

        O nome da ferramenta é EBOW!

      • tatiks tatiks: Em 24/11/2012 17:18

        ola tudo bem.

      140 cancelar
      0:00 / 0:00
      1 versão de baixo exibições contribuição e correção
      1 versão de bateria exibições contribuição e correção
      2 versões de Guitar Proformatodownloadscontribuição
      play/pausefechar subir/descer velocidade
      6ª corda E5ª corda A4ª corda D3ª corda G2ª corda B1ª corda E
        acordes
        publicidade
        fechar
        ok