Cifra Club

Aprenda

O Dia Que Não Terminou

Detonautas

Cifra: Principal (violão e guitarra)
tom: Am
[Intro] Am  F7M/C  G6
        Am  F7M/C  G6

E|---------------------------------------------------|
B|------10\8~----------------------------------------|
G|-7/9~-------9\5-2/7~-7\p0--------------------------|
D|---------------------------------------------------|
A|---------------------------------------------------|
E|---------------------------------------------------|

E|---------------------------------------------------|
B|------10\8~----------------------------------------|
G|-7/9~-------9\5-2/7~-7\p0--------------------------|
D|---------------------------------------------------|
A|---------------------------------------------------|
E|---------------------------------------------------|

[Primeira Parte]

          Am               F7M/C
Me sinto tão estranho aqui
                    G6
Que mal posso me mexer irmão
         Am           F7M/C
No meio dessa confusão
                   G6
Não consigo encontrar ninguém
      Am        F7M/C     G6
Onde foi que você se meteu então?
                      F7M/C
Tô tentando te encontrar
                     Am
Tô tentando me entender
    G6
As coisas são assim

[Violão 2]

   Am9/E
E|-0-------------------------------------------------|
B|-5----------1---------3-------3--------------------|
G|-5------0---------0-------0------------------------|
D|-7----3---3---3/5---5---5---5----------------------|
A|-7-------------------------------------------------|
E|---------------------------------------------------|
                     G
E|-------------------3-------------------------------|
B|-------1-------1---3-------------------------------|
G|---0-------0-------0-------------------------------|
D|-3---3---2---2-----0-------------------------------|
A|-------------------2-------------------------------|
E|-------------------3-------------------------------|

[Refrão]

 Am                    F7M/C          G
Meus olhos grandes de medo revelam a solução
 Am                 F7M/C             G
Meu coração tem segredos que movem a solidão
A solidão

( Am  F7M/C  G6 )

[Violão 2] 

E|---------------------------------------------------|
B|------10\8~----------------------------------------|
G|-7/9~-------9\5-2/7~-7\p0--------------------------|
D|---------------------------------------------------|
A|---------------------------------------------------|
E|---------------------------------------------------|

          Am               F7M/C
Me sinto tão estranho aqui
                G6
Diferente de você irmão
       Am                F7M/C
A sua forma em distorção
                    G6
Não pareço com ninguém sei lá
         Am          F7M/C            G6
Pois eu sei que nós temos o mesmo destino então
                      F7M/C
Tô tentando me encontrar
                     Am
To tentando me entender
      G
Por que tá tudo assim?

E|---------------------------------------------------|
B|---10-8-10---10-8-10---10-8-10---10-8-10---10-8-10-|
G|-9---------9---------9---------9---------9---------|
D|---------------------------------------------------|
A|---------------------------------------------------|
E|---------------------------------------------------|

E|----------------------8-8-7------------------------|
B|---10-8-10---10-8-10--------10-8-------------------|
G|-9---------9---------------------------------------|
D|---------------------------------------------------|
A|---------------------------------------------------|
E|---------------------------------------------------|

[Refrão]

 Am                    F7M/C          G
Meus olhos grandes de medo revelam a solução
 Am                 F7M/C             G
Meu coração tem segredos que movem a solidão
A solidão

( Am  F7M/C  G6 ) 
( Am  F7M/C  G6 ) 

[Violão 2]

E|---------------------------------------------------|
B|------10\8~----------------------------------------|
G|-7/9~-------9\5-2/7~-7\p0--------------------------|
D|---------------------------------------------------|
A|---------------------------------------------------|
E|---------------------------------------------------|

E|---------------------------------------------------|
B|------10\8~----------------------------------------|
G|-7/9~-------9\5-2/7~-7\p0--------------------------|
D|---------------------------------------------------|
A|---------------------------------------------------|
E|---------------------------------------------------|

Am                       F7M/C
   Quem de nós vai insistir e não
Am                       F7M/C
   Se entregar sem resistir então
Am                         F7M/C
   Já não há mais pra onde ir
G                    F7M/C
  Se entregar à solidão e não

E|---------------------------------------------------|
B|---------------------------------------------------|
G|---------------------------------------------------|
D|----------------------------------7-7-7-7-7--------|
A|-3-3-3-3-3-3-3-3-3-3-3-3/7-7-7-7--8-8-8-8-8--------|
E|-5-5-5-5-5-5-5-5-5-5-5-5/8-8-8-8-------------------|

E|-8-7-----------------------------------------------|
B|-----10-8-8h10-------------------------------------|
G|---------------7h9~--------------------------------|
D|---------------------------------------------------|
A|---------------------------------------------------|
E|---------------------------------------------------|

E|---------------------------------------------------|
B|---------------------------------------------------|
G|---------------------------------------------------|
D|----------------------------------7-7-7-7-7--------|
A|-0-0-0-0-3-3-3-3-3-3-3-3/7-7-7-7--8-8-8-8-8--------|
E|---------5-5-5-5-5-5-5-5/8-8-8-8-------------------|

E|---------------------------------------------------|
B|---------------------------------------------------|
G|---------------------------------------------------|
D|---------------------------------------------------|
A|-3-3-3-3-3-3-3-3-3-3-3-3/7-7-7-7-------------------|
E|-5-5-5-5-5-5-5-5-5-5-5-5/8-8-8-8-------------------|

E|---------------------------------------------------|
B|---------------------------------------------------|
G|---------------------------------------------------|
D|---------------------------------------------------|
A|-3-3-3-3-3-3-3-3-3-3-3-3-3-3-3-3-------------------|
E|-1-1-1-1-1-1-1-1-1-1-1-1-1-1-1-1-------------------|

E|---------------------------------------------------|
B|---------------------------------------------------|
G|---------------------------------------------------|
D|---------------------------------------------------|
A|-2-2-2-2-2-2-2-2-2-2-2-2/7-7-7-7-------------------|
E|-3-3-3-3-3-3-3-3-3-3-3-3/8-8-8-8-------------------|

[Refrão]

 Am                    F7M/C          G
Meus olhos grandes de medo revelam a solução
 Am                 F7M/C             G
Meu coração tem segredos que movem a solidão
A solidão
Composição de DJ Cleston / Fábio Brasil / Renato Rocha / Rodrigo Netto / Tico Santa Cruz
Colaboração e revisão:
1.268.617 exibições
  • Simplificar cifra
    • ½ Tom
    • Am
    • Bbm
    • Bm
    • Cm
    • C#m
    • Dm
    • Ebm
    • Em
    • Fm
    • F#m
    • Gm
    • G#m
  • Adicionar à lista

    0 comentários

    Ver todos os comentários

    Conseguiu tocar?

    197 Tocaram 5 Ainda não

    Grave um vídeo tocando O Dia Que Não Terminou e nos envie!

    00:00 / 00:00
    Outros vídeos desta música
    Repetir Qualidade Automático
    Outros vídeos desta música
    00:00 / 00:00
    Automático
    Capítulos
    • Início
    • Tocando a música
    • Acordes da música (violão base)
    • Tocando introdução e primeira parte
    • Ensinando ritmo da música
    • Ensinando solo da intro (violão 2)
    • Ensinando primeira parte (violão 2)
    • Ensinando solo da repetição (violão 2)
    • Tocando refrão
    • Tocando segunda parte
    • Ensinando ritmo (variação)
    • Riff da segunda parte (violão 2)
    • Encerramento

    Cifra Club Pro

    Aproveite o Cifra Club com benefícios exclusivos e sem anúncios
    Cifra Club Pro
    Aproveite o Cifra Club com benefícios exclusivos e sem anúncios
    OK