Cifra Club

Aprenda

O Retorno de Saturno

Detonautas

Cifra: Acustico (violão e guitarra)
tom: A
A C#m (2x)

(slide)
E|--------------------------------------------|
B|-9/10-10-10/12-12-12/14-14-14/17-17-17\-----|
G|--------------------------------------------|
D|--------------------------------------------|
A|--------------------------------------------|
E|--------------------------------------------|

E|--------------------|
B|-9-10-9/10\9/10\9~--|
G|--------------------|
D|--------------------|
A|--------------------|
E|--------------------|

E|--------------------------------------------|
B|-9/10-10-10/12-12-12/14-14-14/17-17-17\-----|
G|--------------------------------------------|
D|--------------------------------------------|
A|--------------------------------------------|
E|--------------------------------------------|

E|----------------------|
B|-9-10-9-7-5-/7\5/7\5~-|
G|----------------------|
D|----------------------|
A|----------------------|
E|----------------------|

 A          C#m                    A
Visão do espaço estamos tão distantes
               C#m                          A
Se acelero os passos sigo a voz do meu coração
                 C#m                  E
Ontem eu fui dormir mais tarde um pouco

E|------------------------------|
B|-/9~-7-5--7/9-10\9-5---5/7\5--|
G|---------------------6--------|
D|------------------------------|
A|------------------------------|
E|------------------------------|

E                A
E tudo vai indo bem
 A            C#m              A
Venço o cansaço e medo do futuro
          C#m                           A
No teu abraço é que encontro a cura do mal
             C#m                  E
Hoje eu acordei e te quis por perto

E|------------------------------|
B|-/9~-7-5--7/9-10\9-5---5/7\5--|
G|---------------------6--------|
D|------------------------------|
A|------------------------------|
E|------------------------------|

          A             F#m
Você não sai do meu pensamento
                  C#m                E
E eu me questiono aqui se isso é normal
D           E                             A
Nãooo    precisa ser de novo assim tudo igual



A          C#m                  A
Entre o retorno de Saturno e o seu
              C#m                        A
Busco uma resposta que acalme o meu coração
               C#m                 E
Do amanhã não sei o que posso esperar

E|--------------------------------------|
B|-/9~---10/9----10/9----10/9----10/9---|
G|------------9-------9-------9-------9-|
D|--------------------------------------|
A|--------------------------------------|
E|--------------------------------------|

          A             F#m
Você não sai do meu pensamento
             C#m                     E
E eu me questiono aqui se isso é normal
          A             F#m
Você não sai do meu pensamento
            C#m                 E
E eu me pergunto aqui se o Natural
D         E                          A
Vaaai   dizer que o amor chegou no final  
D          E                            A
Nãooo   precisa ser de novo assim tudo igual  


 A     F#m                          C#m
Não precisa ser de novo assim tudo igual

E|---------------------------------------------------|
B|----5----7----9~---9-11b12-9-----------------------|
G|-4/6--6/8--8/9---------------11-9----11b12-9----9~-|
D|----------------------------------11---------11----|
A|---------------------------------------------------|
E|---------------------------------------------------|

 A     F#m                          C#m
Não precisa ser de novo assim tudo igual

E|-------12--------11--------9-------7------5-----|
B|------------------------------------------------|
G|-11/13-----13\12-----12\10----10\8----8\6-------|
D|------------------------------------------------|
A|------------------------------------------------|
E|------------------------------------------------|

E|------7----------------|
B|--7b8---7b8r7p5-7-5----|
G|-----------------------|
D|-----------------------|
A|-----------------------|
E|-----------------------|

A C#m

E|---------------------------------------------------|
B|-9/10-10-10/12-12-12-12/14-14-14-14/17-17-17-17\14-|
G|---------------------------------------------------|
D|---------------------------------------------------|
A|---------------------------------------------------|
E|---------------------------------------------------|

E|----------------------------------------------|
B|-14-14-14\12-12-12-12\10-10-10-10\9/10\9/10\9-|
G|----------------------------------------------|
D|----------------------------------------------|
A|----------------------------------------------|
E|----------------------------------------------|

E|-----------------------------|
B|-5/7-5/7-7~--2\0-2/5~-2\0-2~-|
G|-----------------------------|
D|-----------------------------|
A|-----------------------------|
E|-----------------------------|

E|---------------------------------------------------|
B|-9/10-10-10/12-12-12-12/14-14-14-14/17-17-17-17/19-|
G|---------------------------------------------------|
D|---------------------------------------------------|
A|---------------------------------------------------|
E|---------------------------------------------------|

E|----------------------------------------------------|
B|-19-19-19\17-17-17-17\14-14-14-14-12/14-12/14-12/14-|
G|----------------------------------------------------|
D|----------------------------------------------------|
A|----------------------------------------------------|
E|----------------------------------------------------|

Riff 1 (tocado junto com o ultimo verso do refrão)
E|---------------|
B|-/7~--5-3-2-0--|
G|---------------|
D|---------------|
A|---------------|
E|---------------|

Dedilhado durante o verso
    A                               C#m
E|---------------------------------------------------------------------|
B|----5----5---------5----5-------------5-----5---------5----5---------| 
G|-----6----6---6-----6----6---6----------6-----6---6-----6----6---6---|
D|--7----7----7----7----7----7--------6-----6----6----6-----6----6-----|
A|---------------------------------------------------------------------|
E|---------------------------------------------------------------------|

 Dedilhado no F#m durante refrão
E|---------0------|
B|---2-------2----|
G|-----2----------|
D|-------4--------|
A|-2--------------|
E|----------------|
Composição de DJ Cleston / Fábio Brasil / Renato Rocha / Tico Santa Cruz
Colaboração e revisão:
  • Samuel Santos
3.880 exibições
    • ½ Tom
    • A
    • Bb
    • B
    • C
    • Db
    • D
    • Eb
    • E
    • F
    • F#
    • G
    • Ab
  • Adicionar à lista

    0 comentários

    Ver todos os comentários

    Conseguiu tocar?

    2 Tocaram 0 Ainda não

    Grave um vídeo tocando O Retorno de Saturno e nos envie!

    00:00 / 00:00
    Outros vídeos desta música
    Repetir Qualidade Automático
    Outros vídeos desta música
    00:00 / 00:00
    Automático

    Cifra Club Pro

    Aproveite o Cifra Club com benefícios exclusivos e sem anúncios
    Cifra Club Pro
    Aproveite o Cifra Club com benefícios exclusivos e sem anúncios
    OK