Cifra Club

Aprenda

Olhos Certos

Detonautas

Tab de baixo: Principal
Solo
G|--6h7-7-6--------------|
D|----------6-7-7h9-9-7--|
A|----------------------7|
E|9----------------------|

Verso/intro
G|---------|
D|---------|
A|4~~~0~~~~|
E|---------|

Refrão
G|------------------------------------|
D|------------------------------------|
A|4--4--4-3-0--0-2-------------2-2----|
E|-----------------5-3-2--2--2----5--5|

Bridge
G|-----------------------|-----------------------------|
D|-----------------------|-----------------------------|
A|-------2--2--4--4------|-------2--2------------------|
E|0--0-5-------------5--5|0--0-5-------5--5-17-17-17-17|
                                         (A|12-12-12-12)

_______________________________________________________
Contribuição: Luiz Victor D. Bonecker(l.bonecker@uol.com.br)
Composição de DJ Cleston / Fábio Brasil / Renato Rocha / Rodrigo Neto / Tchello / Tico Santa Cruz
74.441 exibições

0 comentários

Ver todos os comentários
00:00 / 00:00
Outros vídeos desta música
Repetir Qualidade Automático
Outros vídeos desta música
00:00 / 00:00
Automático

Cifra Club Pro

Aproveite o Cifra Club com benefícios exclusivos e sem anúncios
Cifra Club Pro
Aproveite o Cifra Club com benefícios exclusivos e sem anúncios
OK