Cifra Club

Tô Aprendendo a viver sem você

Detonautas

Cifra: Principal
exibições 360.798
Tom: E
(intro)  E

(o dedilhado da introdução é feito em E 4 vezes antes de começar a cantar)

   E        (4x)
E|-------4----5-4-----|
B|-----5----------5---|
G|---4--------------4-|
D|--------------------|
A|--------------------|
E|-0------------------|

 E
Venha pra perto de mim
                     D
E veja como eu estou só
E
Senta nao olha pro chão
                       D     C#m    A9
A culpa não foi de ninguém,  não,  não

F#m          A9                   E
Ah, tô aprendendo a viver sem você (2x)

E                         D
Sei que o dia raiou para mim
C#m                E
Mas pra você tanto fez
                             D
Sei que não vou mudar, sou assim
C#m              A9
Para você sou mais um

F#m          A9                  E
Ah, tô aprendendo a viver sem você (2x)
F#m          A9                   C#m
Ah, tô aprendendo e não quero aprender (2X)

(C#m  A  B) (2x)
(C#m  A  B) (4x com flauta)

(flauta)
E|-------------------------------------4--7---5-4---------7--4--7--4---|
B|----5---9---7-5------/14----------5-----------------7--------------7-|
G|-------------------------------4-------------------------------------|
D|---------------------------------------------------------------------|
A|---------------------------------------------------------------------|
E|---------------------------------------------------------------------|

C#m         A9         B         C#m
     Tô voltando pro meu recanto
A       B         C#m
  Lá é bem melhooorr
          A9                  B        C#m
Não, não sei quem vai estar me esperando
A           B        E
  Eu nunca vou estar só

F#m          A9                   E
Ah, tô aprendendo a viver sem você (2x)
F#m          A9                   C#m
Ah, tô aprendendo e não quero aprender
F#m          A9                   E
Ah, tô aprendendo a viver sem você

( F#m   A    E )  (2x  com  flauta)

E|-------------4--7---5-4---------7--4--7--4---|
B|----------5-----------------7--------------7-|
G|-------4-------------------------------------|
D|---------------------------------------------|
A|---------------------------------------------|
E|---------------------------------------------|
Acordes para:

    0 comentários

      mostrar mais comentários

      Conseguiu tocar?

      40tocaram1ainda não

      Grave um vídeo tocando Tô Aprendendo a viver sem você e mande pra gente!

      00:00 / 00:00
      outros vídeos desta música
      repetirqualidadeautomática
      Outro vídeos desta música
        00:00 / 00:00
        automática
        OK