Nothings Like Before

Devilish

Composição: Bill Kaulitz
Tom: D
(intro)

E |--------------------------------------------------------------------------|
B |--8---7--5-----3-----3----5---7------8------------------------------------|
G |---0---0----0----0----0----0-----0----------------------------------------|
D |----0---0-----0---0-----0----0------0-------------------------------------|
A |--------------------------------------------------------------------------|
E |--------------------------------------------------------------------------|

(verse 1)
E |--------------------------------------------------------------------|
B |--8---7--5-----3--3----5---7-----8----------------------------------|
G |---0---0---0----0----0--0-----0------------------------------|------| (4x)
D |----0---0----0---0-----0-0------0-----------------------------------|
A |--------------------------------------------------------------------|
E |--------------------------------------------------------------------|

(chorus)
E |-------------------------------------|
B |-------------------------------------|
G |-------------------------------------|
D |-------------------------------------|
A |2-2-2--5--5-5--7-7-7--7--7-7---------|
E |0-0-0--3--3-3--5-5-5--5--5-5---------|
                                             (6x)
E |-------------------------------------|
B |-------------------------------------|
G |-------------------------------------|
D |-------------------------------------|
A |2-2-2--5--5-5--7-7-7-7-7-7-7-7-------|
E |0-0-0--3--3-3--5-5-5-5-5-5-5-5-------|

(verse 2)
E |--------------------------------------------------------------------|
B |--8---7--5-----3--3----5---7-----8----------------------------------|
G |---0---0---0----0----0--0-----0------------------------------|------| (3x)
D |----0---0----0---0-----0-0------0-----------------------------------|
A |--------------------------------------------------------------------|
E |--------------------------------------------------------------------|

(chorus)
E |-------------------------------------|
B |-------------------------------------|
G |-------------------------------------|
D |-------------------------------------|
A |2-2-2--5--5-5--7-7-7--7--7-7---------|
E |0-0-0--3--3-3--5-5-5--5--5-5---------|
                                             (6x)
E |-------------------------------------|
B |-------------------------------------|
G |-------------------------------------|
D |-------------------------------------|
A |2-2-2--5--5-5--7-7-7-7-7-7-7-7-------|
E |0-0-0--3--3-3--5-5-5-5-5-5-5-5-------|

(verse 3)
E |--------------------------------------------------------------------|
B |--8---7--5-----3--3----5---7-----8----------------------------------|
G |---0---0---0----0----0--0-----0------------------------------|------| (3x)
D |----0---0----0---0-----0-0------0-----------------------------------|
A |--------------------------------------------------------------------|
E |--------------------------------------------------------------------|

(chorus)
E |-------------------------------------|
B |-------------------------------------|
G |-------------------------------------|
D |-------------------------------------|
A |2-2-2--5--5-5--7-7-7--7--7-7---------|
E |0-0-0--3--3-3--5-5-5--5--5-5---------|
                                             (8x)
E |-------------------------------------|
B |-------------------------------------|
G |-------------------------------------|
D |-------------------------------------|
A |2-2-2--5--5-5--7-7-7-7-7-7-7-7-------|
E |0-0-0--3--3-3--5-5-5-5-5-5-5-5-------|
Página 1 / 1

Letras e título
Acordes e artista

resetar configurações
OK