Cifra Club

Barco de Papel

Di Paullo e Paulino

Cifra: Principal (violão e guitarra)
tom: E
[Intro] E  B7  E 
        B7  E

[Tab - Solo Intro]

Parte 1 de 4

E|--4-4-4-4-4-4--7--7/9--7-7--5-----------------------|
B|--5-5-5-5-5-5--9-9/10--9-9--7-----------------------|
G|----------------------------------------------------|
D|----------------------------------------------------|
A|----------------------------------------------------|
E|----------------------------------------------------|

Parte 2 de 4

E|-5-5-5-5-5-5--7-11--9--7-4--------------------------|
B|-7-7-7-7-7-7--9-12--10-9-5--------------------------|
G|----------------------------------------------------|
D|----------------------------------------------------|
A|----------------------------------------------------|
E|----------------------------------------------------|

Parte 3 de 4

E|-12-12-12-12-12-12-11-14-12----11---11--------------|
B|----------------------------------------------------|
G|-13-13-13-13-13-13-11-14-13--11---11---11-----------|
D|----------------------------------------------------|
A|----------------------------------------------------|
E|----------------------------------------------------|

Parte 4 de 4

E|--11-11-11-11-11----9---7---5-4---------------------|
B|--12-12-12-12----10---9---7---5---------------------|
G|----------------------------------------------------|
D|----------------------------------------------------|
A|----------------------------------------------------|
E|----------------------------------------------------|

           E                         B7
Meu grande amor, somos dois barcos tristes
                             E
E navegamos sempre em ondas fortes
                           B7
Porque seguimos rumos diferentes
            A                    E
Um vai pro sul, o outro vai por norte
                           B7
Pra onde vamos não existe porto
                             E
No mar da vida somos clandestinos
                            B7
Dois condenados a morrer de amor
                           E
Na tempestade do fatal destino

( B7  E )

                         B7
Estou perdido e você também
                               E
Estamos dois a chorar de saudade
                         B7
Não adianta navegar pra longe
             A             E
Se está tão perto a felicidade
                           B7
Estamos presos pelo compromisso
                                  E
Que a própria honra obriga a cumprir
                              B7
Mas, se os nossos corações desejam
                              E
Os nossos lábios não podem impedir

( B7  E )

                              B7
Nas minhas noites de cruel revolta
                                  E
Sinto por dentro um coração que chora
                           B7
Mas o relógio do tempo marcou
           A                  E
O nosso encontro tão fora de hora
                           B7
Estou perdido pelo mar da vida
                        E
E enfrentando a onda cruel
                          B7
Jamais iremos alcançar o porto
                             E
Porque o nosso barco é de papel
                        B7
Jamais iremos alcançar o porto
                             E
Porque o nosso barco é de papel

[Final] B7  E
00:00 / 00:00
Outros vídeos desta música
Repetir
Outros vídeos desta música
Composição de Renaldo Queiroz
Colaboração e revisão:
  • Pietro Henrique"
5.455 exibições
    • ½ Tom
    • A
    • Bb
    • B
    • C
    • Db
    • D
    • Eb
    • E
    • F
    • F#
    • G
    • Ab
  • Adicionar à lista

    0 comentários

    Ver todos os comentários

    Entre para oCifra Club PRO

    Tenha acesso a benefícios exclusivos no App e no Site

    • Chega de anúncios

    • Prioridade de compra em lançamentos

    • Mais recursos no app do Afinador

    • Atendimento Prioritário

    • Descontos nos produtos Cifra Club

    • Ajude a produzir mais conteúdo

    00:00 / 00:00

    Cifra Club Pro

    Aproveite o Cifra Club com benefícios exclusivos e sem anúncios
    Cifra Club Pro
    Aproveite o Cifra Club com benefícios exclusivos e sem anúncios
    OK