Estrelinha (part. Marília Mendonça)

Di Paullo e Paulino

Composição de: Gabriel Rocha / Leandro Visacre / Lucas Carvalho
tom: E
[Intro] E  F#m  G#m  F#m  
        E/G#  A9  E  E4  E

[Tab - Solo Intro]

Parte 1 de 2
E|--4-2-0-4-2-0-4-2-0---------------------------------|
B|--------------------4-2-0---2-----------------------|
G|--------------------------2-------------------------|
D|----------------------------------------------------|
A|----------------------------------------------------|
E|----------------------------------------------------|

Parte 2 de 2
E|-----9---7---5---7----5---4----2---4----------------|
B|--10---9---7---9----7---7----5---5------------------|
G|----------------------------------------------------|
D|----------------------------------------------------|
A|----------------------------------------------------|
E|----------------------------------------------------|

[Primeira Parte]

              F#m7
Enxugue esse rosto
                           A9
E venha aqui fora como de costume
             E
Vamos conversar
            E4              E9
Pra te alegrar tem até vagalume
     E  F#m   E/G#  F#m
Tem dia     que    vai piorar
         A9
Saudade vai apertar
                      E
Até que "cê" tá indo bem
                           B9
Faz falta aqui pra mim também
            F#m7
Lembra de quando
                                  A9
Eu ficava acordado até tarde esperando
           E
Só pra ganhar

Um beijo de boa noite antes de dormir
                 F#m7
Daqui não é diferente
                       A9
Te beijo mas você não sente

[Refrão]

  E
Quando bater a saudade
               B9
Olhe aqui pra cima
                       
Sabe lá no céu 
             F#m7
Aquela estrelinha
                            
Que eu muitas vezes 
               A9  A  E/G#  F#m7
Mostrei pra você
 E
Hoje é minha morada
           B9
A minha casinha
                               F#m7
Mesmo que de longe tão pequenininha
            B9                E
Ela brilha mais toda vez que te vê

[Solo] F#  G#m7  F#/A#  
       G#m7  B9  F#

[Tab - Solo]

Parte 1 de 2
E|-2-4-6-7-6-4-7-6-4-7-6-4-----------4----------------|
B|-------------------------7-6-4-3h4------------------|
G|----------------------------------------------------|
D|----------------------------------------------------|
A|----------------------------------------------------|
E|----------------------------------------------------|

Parte 2 de 2
E|---2---1------------7---6---4--9--------------------|
B|-4---2-----4---2--7---7---7------7------------------|
G|---------4---3--------------------------------------|
D|----------------------------------------------------|
A|----------------------------------------------------|
E|----------------------------------------------------|

[Primeira Parte]

              G#m7
Enxugue esse rosto
                           B9
Venha aqui fora como de costume
               F#
E vamos conversar
            F#4             F#
Pra te alegrar tem até vagalume
     F# G#m   F#/A#  G#m7
Tem dia     que     vai piorar
         B9
Saudade vai apertar
                      F#
Até que "cê" tá indo bem
                           C#9
Faz falta aqui pra mim também
            G#m7
Lembra de quando
                                  B9
Eu ficava acordada até tarde esperando
           F#
Só pra ganhar

Um beijo de boa noite antes de dormir
                 G#m7
Daqui não é diferente
                       B9   
Te beijo mas você não sente

[Refrão]

  F#
Quando bater a saudade
               C#9
Olhe aqui pra cima
                            G#m7
Sabe lá no céu aquela estrelinha
                              
Que eu muitas vezes 
               B9  B  F#/A#  G#m
Mostrei pra você
 F#
Hoje é minha morada
           C#9
A minha casinha
                               G#m
Mesmo que de longe tão pequenininha
            C#9                  F#
Ela brilha mais toda vez que te vê

( F#  F#4  F#  F#4 )

              F# F#4  F#
Enxugue esse rosto
Página 1 / 1

Letras e título
Acordes e artista

resetar configurações
OK