Cifra Club

Estrelinha (part. Marília Mendonça)

Di Paullo e Paulino

Cifra: Ukulele (violão e guitarra)
tom: C
    C
A|----------3----------------3----------3---------------|
E|--------0---0-----------0-----0-----------------------|
C|-----0---------0-----0-----------0--------------------|
G|--0---------------0-------------------0---------------|

                       Dm
A|----------------0---------0---------0-------0-------0-|
E|--0---1---3-------1---------1---------1-------1-------|
C|--0---0---0-----2----2---------2--------2--------2--2-|
G|----0---0---------------------------------------------|

               C
A|---3---2---0------------------------------------------|
E|--------------3--------3-------3-----3--------3-------|
C|-----------------0-------0-------0------0-------------|
G|--------------0----0-------0-------0------0-----------|

            F
A|--2--0-----0-------0--------0-------0-----0------0----|
E|-------3-----1-------1--------1------1------1---------|
C|---------------2-------2-------2------2-------2-------|
G|------------------------------------------------------|
                   C         F         C
A|------------------3------------3----------------------|
E|-0h1--0-----0-------0------1-----1----0---------------|
C|---------2--0---------0----0-------0--0---------------|
G|------------------------------------------------------|
00:00 / 00:00
Outros vídeos desta música
Repetir
Outros vídeos desta música
Composição de Gabriel Rocha / Leandro Visacre / Lucas Carvalho
Colaboração e revisão:
  • Marcos Virtuoso
2.981 exibições
    • ½ Tom
    • A
    • Bb
    • B
    • C
    • Db
    • D
    • Eb
    • E
    • F
    • F#
    • G
    • Ab
  • Adicionar à lista

    0 comentários

    Ver todos os comentários

    Conseguiu tocar?

    1 Tocaram 0 Ainda não

    Grave um vídeo tocando Estrelinha (part. Marília Mendonça) e nos envie!

    Entre para oCifra Club PRO

    Tenha acesso a benefícios exclusivos no App e no Site

    • Chega de anúncios

    • Prioridade de compra em lançamentos

    • Mais recursos no app do Afinador

    • Atendimento Prioritário

    • Descontos nos produtos Cifra Club

    • Ajude a produzir mais conteúdo

    00:00 / 00:00

    Cifra Club Pro

    Aproveite o Cifra Club com benefícios exclusivos e sem anúncios
    Cifra Club Pro
    Aproveite o Cifra Club com benefícios exclusivos e sem anúncios
    OK