Rollercoaster

Di-Rect

Composição de: Di-rect
tom: Afinação:
Tuning: E A D G
Tabbed By CLosedRoad 

Intro/Chorus
G --------------------------------------|
D --------------------------------------| 3x
A -------------------33333333-55555555--|
E -00000000-33333333--------------------|

G -------|
D -------|
A -------|
E --5/0--|

Pre Chorus
G --------|
D --------|
A --------|
E -1/7\0--|

Chorus 3x

After Chorus
G ---------------|
D ---------------|
A ---------------|
E -00-30030h3-0--|

Verse
G ---------------------------------------------------------------------|
D ---------------------------------------------------------------------|
A ---------3~--5~---------3~--5~---7~--10~--3~--5~----------3~--5~\\0--|
E -0~--3~---------0~--3~----------------------------0~--3~-------------|

Pre Chorus 1x
Chorus     2x

Chorus Variation
G -------------------------------7---7---7---7--|
D ----------------------------------------------|
A -------------------33333333--5---5---5---5----|
E -00000000-33333333----------------------------|

After Chorus 1x

Bridge
G ----------------------------------------| Not sure what he plays here it  
D -(0-0)(0-0)-----(0-0)(0-0)--////12------| sounds like a low D but could 
A ------------3~----------------------3~--| aslo be a high D
E ----------------------------------------|
B --3-3--3-3--------3-3--3-3--------------|

During guitar solo
Chorus           2x
Chorus variation 2x

Drums and vocals part Bas plays one slide
G ----------|
D ----------|
A ----------|
E -1/3\1p0--|

Chorus           1x
Chorus Variation 4x

Chorus variation II
G -----------------------------------------------------------|
D -------------12--12--12--12--101010109999-1210---10----12--|
A -----------10--10--10--10----------------------12--1210----|
E -00000000--------------------------------------------------|

Chorus Variation 1x
After chorus 3x

End on open E

heavy song good riffs, but some riffs are difficult to hear
Have Fun Greetings ClosedRoad 
(Dutch)
Vet nummer goeie riffs ookal zijn sommige riffs moeilijk te horen
Veel plezier
Groeten ClosedRoad
Página 1 / 1

Letras e título
Acordes e artista

resetar configurações
OK