Notificações Amigos pendentes

      Diante do Trono

      Em Meio a Tua Glória

      27.428 exibições
      Tom: A
      Intro: F#m  A  E  Bm
      
      Solo Intro:
      
      E:--------------------------------------:
      B:------10-10-9-9/14-14-14/17-17-17~----:
      G:----9---------------------------------:
      D:-7------------------------------------:
      A:--------------------------------------:
      E:--------------------------------------:
      
      
      E:--------------------------------------:
      B:------9-9-10-10-7-7/2-2-2/5-----------:
      G:----7---------------------------------:
      D:-9------------------------------------:
      A:--------------------------------------:
      E:--------------------------------------:
      
      
      E:--------------------------------------:
      B:------10-10-9-9/14-14-14/17-17-17~----:
      G:----9---------------------------------:
      D:-7------------------------------------:
      A:--------------------------------------:
      E:--------------------------------------:
      
      
      E:--------------------------------------:
      B:------9-9-10-10-7-7/2-2-2/5-5-5/2~----:
      G:----7---------------------------------:
      D:-9------------------------------------:
      A:--------------------------------------:
      E:--------------------------------------:
      
                  F#m       A             Bm    D
      Eu quero entrar pelo novo e vivo caminho
        F#m           A             E  Bm
      Aberto por Teu sangue lá na cruz
              F#m           A           Bm           D
      Do Teu lado o véu rasgado que me dá acesso ao Pai
                  F#m      A          E    D
      Eu quero entrar em meio à Tua glória
      
             A                   E
      Sou curado em meio à Tua glória
               A/C#               E
      Transformado de glória em glória
               Bm
      Enche o céu do meu coração
             D
      Com a tua Shekinah
                                  E
      Quero estar em meio à Tua glória
      
      
      ( SOLO NO MINUTO 3:51 guitarra 1)
      
      
      E:--------------------------------------:
      B:-----10-10-10/17-17/7-10--------------:
      G:--------------------------------------: ( fica repitindo isso até o minuto 6:02)
      D:--------------------------------------:
      A:--------------------------------------:
      E:--------------------------------------:
      
      
      ( SOLONO MINUTO 4:40 guitarra 2)
      
      
      E:---------------------------------------------------------------------------------------------------------:
      B:--10-10-10-10-10-10-9-9-9-9-9-9-----------------------------------------10-10-10-10-10-10-9-9-9-9-9-9----:
      G:--------------------------------9-9-9-9-9-9-6-6-6-6-6-7-7-7-7-9-9-9-9-9----------------------------------:
      D:---------------------------------------------------------------------------------------------------------:
      A:---------------------------------------------------------------------------------------------------------:
      E:---------------------------------------------------------------------------------------------------------:
      
      
      E:-----------------------------------------------:
      B:-----------------------------------------------:
      G:--9-9-9-9-9-9-6-6-6-6-6-9-6-6-6-9-6-6-6-6------:
      D:-----------------------------------------------:
      A:-----------------------------------------------:
      E:-----------------------------------------------:
      
      
      ( fica repitindo isso até o minuto 6:02)
      
        F#m      A     E       Bm
      O medo se vai, a alegria vem
             F#m       A           E    Bm
      Eu sou livre em meio à Tua glória
        F#m      A     E       Bm
      O medo se vai, a alegria vem
             F#m       A           E    Bm
      Eu sou livre em meio à Tua glória
      
      F#m  A  E  Bm
      Glória, glória
             F#m       A           E    Bm
      Eu sou livre em meio à Tua glória
      F#m A   E Bm
      Glória, glória
             F#m       A           E    Bm
      Eu sou livre em meio à Tua glória
        Composição: Ana Paula ValadãoColaboração e revisão:
        • violeiro15
        • rocha.simon
        • ju_
        • viniciuscg
        • Leleo
        • +1

        Comentários 1

        140 .
        140 cancelar

        conseguiu tocar?

        covers

        Grave um vídeo tocando Em Meio a Tua Glória e mande pra gente!

        Ex.: http://www.youtube.com/watch?v=0IvSvIwGdwk
        ver covers de outras músicas »
        0:00 / 0:00

        Capítulos

          2 versões de violão dificuldade exibições contribuição e correção
          2 versões de guitarra dificuldade exibições contribuição e correção
          2 versões de cavaco dificuldade exibições contribuição e correção
          2 versões de teclado dificuldade exibições contribuição e correção
          play/pausefechar subir/descer velocidade
          6ª corda E5ª corda A4ª corda D3ª corda G2ª corda B1ª corda E
            acordes
            publicidade
            fechar
            ok