Meu Coração

Diante do Trono

Composição de: Ana Paula Valadão Bessa
tom: C
Intro: Am  G  C/E  F  Am  G  C/E  F
E|--8----8---12--7----5---5-----------------------------------
B|--5----5-------5----5---5----8----8---8----10----10---10----
G|--5--5---5-----5--5---5---5--9----9---9----10----10---10----
D|--7------------5-------------9--9---9---9--10--10---10---10-
A|-----------------------------7-------------8----------------
E|------------------------------------------------------------

Guitarra:
E|-8-8-12/7-7-7-3-3-3-5-5-5-5---|
B|--5-5----5-5-5-3-3-3-6-6-6-6--|
G|------------------------------|
D|------------------------------|
A|------------------------------|
E|------------------------------|

Guitarra no vocal (Meu coração...):

E|-8-8-12/7-7-7-5-5-5-5-5-|
B|--5-5----5-5-5-6-6-6-6--|
G|------------------------|
D|------------------------|
A|------------------------|
E|------------------------|

        Am     G           F
Meu coração aprenda a esperar
        Am     G             F
Meu coração aprenda a descansar
        Am7   G            F
Meu coração aprenda a confiar em Deus
        Am         G          F
Ele é o único que pode te ajudar

    F                      C/E
Ele é o Deus de toda a esperança
    F                      C/E
Ele é o Deus de toda consolação
     F      G                Am      G         F
E jamais aqueles que nele esperam serão confundidos
           Dm      Em    F   G
Ele é fi-  e-      e-     el

         Am    G           F
Meu coração aprenda a esperar
         Am    G             F
Meu coração aprenda a descansar
         Am7   G            F
Meu coração aprenda a confiar em Deus
        Am         G          F
Ele é o único que pode te ajudar

    F                      C/E
Ele é o Deus de toda a esperança
    F                      C/E
Ele é o Deus de toda consolação
     F     G                 Am      G         F
E jamais aqueles que nele esperam serão confundidos
     G       Am        G      F
Não há impossíveis em suas palavras
    G            Am    G              F
Nenhum dos teus planos podem ser frustrados

           Dm      Em     F
Ele é fi-  e-      e-     el
           Dm      Em     F
Ele é fi-  e-      e-     el
           Dm      Em     F
Ele é fi-  e-      e-     el
           Dm      Em     F   G
Ele é fi-  e-      e-     e-  el

( Am  G  C/E  F  Am  G  C/E  F )

           Dm      Em     F
Ele é fi-  e-      e-     el
           Dm      Em     F
Ele é fi-  e-      e-     el
           Dm      Em     F
Ele é fi-  e-      e-     el
           Dm      Em     F
Ele é fi-  e-      e-     el
           Dm      Em     F
Ele é fi-  e-      e-     el
           Dm      Em     F   G
Ele é fi-  e-      e-     e-  el

Final: Am  G  C/E  F  Am  G  C/E  F
Página 1 / 1

Letras e título
Acordes e artista

resetar configurações
OK