Cifra Club

Bajo en serotonina

DiaZepunK

Cifra: Principal (violão e guitarra)
tom: C
E|----------------------------------------------------------------|
B|--10/12-10------------------------------------------------------|
G|-----------11-9----9-11-9---------------------------------------|
D|----------------11---------7-9-9/11-9-7---------------------9---|
A|---------------------------------------------4-7-4--7-7/9-7-----|
E|-----------------------------------------5-7--------------------|

E|----------------------------------------------------------------|
B|-----------7-7-10-10-10/12--14-14-15-15-15/17-------------------|
G|------6-9-------------------------------------------------------|
D|--7-9---------------------------------------------11-9-11----14-|
A|----------------------------------------------------------------|
E|----------------------------------------------------------------|

2C :

E|-------------------------------------------------------------------------|
B|-------------------------------------------------------------------------|
G|----------------------9h11-9--------------------9h11-9h11-9--9h11-9h11-9-|
D|--9h11-9--7-9-9/11-9----------7-9-9/11b-7-7h9-7--------------------------|
A|-------------------------------------------------------------------------|
E|-------------------------------------------------------------------------|
Composição de Diazepunk
    • ½ Tom
    • A
    • Bb
    • B
    • C
    • Db
    • D
    • Eb
    • E
    • F
    • F#
    • G
    • Ab
  • Adicionar à lista

    0 comentários

    Ver todos os comentários

    Conseguiu tocar?

    0 Tocaram 0 Ainda não

    Grave um vídeo tocando Bajo en serotonina e nos envie!

    00:00 / 00:00
    Outros vídeos desta música
    Repetir Qualidade Automático
    Outros vídeos desta música
    00:00 / 00:00
    Automático

    Cifra Club Pro

    Aproveite o Cifra Club com benefícios exclusivos e sem anúncios
    Cifra Club Pro
    Aproveite o Cifra Club com benefícios exclusivos e sem anúncios
    OK