Cifra Club

Aprenda

Alt Lys Er Svunnet Hen

Dimmu Borgir

Cifra: Principal (violão e guitarra)
tom: D
Riff 1:
|---------------------------------|
|---------------------------------|
|---------------------------------|
|---------------------------------|
|-777777777777-333333333333-5-6---|
|-555555555555-111111111111-3-4---|

Riff 2:
|----------------------------------------------------------|
|----------------------------------------------------------|
|----------------------------------------------------------|
|------------------------------9-9-9-9---------------------|
|-7-7-7--7--9--7--5-5-5-5-5-5--7-7-7-7--10-9--7-7-7-7-7-7--|
|-5-5-5--5--7--5--3-3-3-3-3-3-----------8--7--5-5-5-5-5-5--|

Riff 3:
|-----------------------------------|
|-----------------------------------|
|-----------------------------------|
|---------9-------------------------|
|-7-7--10----7--7-7-7-7--9-9-9-9-9--|
|------------5--5-5-5-5--7-7-7-7-7--|

Riff 4:
|---------------------------------|
|---------------------------------|
|---------------------------------|
|---------------------------------|
|-777777777777-333333333333-------|
|-555555555555-111111111111-------|

Riff 5: (I'm not sure about this part)
|---------------------------------------------------------------------|
|---------------------------------------------------------------------|
|---------------------------------------------------------------------|
|---------------------------------------------------------------------|
|-7-7777--7-777-8---------------10-10101010-10-10101010--12-12121212--|
|-----------------8-8888-8-8888---------------------------------------|

Verse:
|--------------------------------------------------------|
|--------------------------------------------------------|
|--------------------------------------------------------|
|-9--9-9-9--8-7--7--7-7-7--------------------------------|
|-7--7-7-7--6-5--5--5-5-5--5--5-5--4-4--5-5--9--9-9-9-9--|
|--------------------------3--3-3--2-2--3-3--7--7-7-7-7--|

Riff 6:
|---------------------------------------------------------|
|---------------------------------------------------------|
|---------------------------------------------------------|
|---------------444--------------------------444-4-7-6-4--|
|-555555-444444-222-555-222222-555555-444444-222-2-5-4-2--|
|-333333-222222-----333-000000-333333-222222--------------|
                                                       l
Composição de Dimmu Borgir / Erkekjetter Silenoz / Shagrath / Silenoz
Colaboração e revisão:
  • Marcos Vinícius
2.664 exibições
    • ½ Tom
    • A
    • Bb
    • B
    • C
    • Db
    • D
    • Eb
    • E
    • F
    • F#
    • G
    • Ab
  • Adicionar à lista

    0 comentários

    Ver todos os comentários

    Conseguiu tocar?

    0 Tocaram 0 Ainda não

    Grave um vídeo tocando Alt Lys Er Svunnet Hen e nos envie!

    00:00 / 00:00
    outros vídeos desta música
    repetir qualidade Automático
    Outros vídeos desta música
    00:00 / 00:00
    Automático

    Cifra Club Pro

    Aproveite o Cifra Club com benefícios exclusivos e sem anúncios
    Cifra Club Pro
    Aproveite o Cifra Club com benefícios exclusivos e sem anúncios
    OK