Cifra Club

Said The People

Dinosaur Jr

Cifra: Principal (violão e guitarra)
Tom: C
Intro 2x:

E|-------------------------------------------------------------------- |
B|--8--7-----7v---------888--7-----7v--------------------------------- |
G|-------(b9)7------4-7---99(b9)---(b9)7------4-7--------------------- |
D|----------------------99(b9)---------------------------------------- |
A|-------------------5------------------------------------------------ |
E|-------------------------------------------------------------------- |



Am     C                 D9 Dm          F7M  G6
I been staring, I been  staring into space
Am       C                 D9 Dm        F7M   G6
  Always dyin',      not a smile, such a waste
Am        C        D9 Dm    F7M   G6
  I don't wanna, I don't wanna know
Am      C         D9 Dm       F7M  G6
I can't tell you, I just have to go
F7M      C                  G                Dm D9
 Of all the people, of all the people to let me down
F7M       C                 G               Dm D9
  Of all the people, of all the people,   why now

Refrão:
F7M      C                  G                Dm D9
Save       me                 save             me
F7M      C                  G                Dm D9
Save       me                 save             me

Final do Refrão: (Repeat X2)

E|---------------------------------------------------------------- |
B|--8--7-----7v---------888--7-----7v----------------------------- |
G|-------(b9)7------4-7---99(b9)---(b9)7------4-7----------------- |
D|----------------------99(b9)------------------------------------ |
A|---------------------------------------------------------------- |
E|---------------------------------------------------------------- |

Verso:
Am        C                   D9 Dm          F7M  G6
Bring me something, bring me something I can use
Am            C                   D9 Dm      F7M  G6
  Well here's one thing, but it's not the one I choose
Am       C        D9 Dm         F7M  G6
 I can't help it, hope you show up soon
Am       C        D9 Dm        F7M   G6
 I can't help it, I'm countin' on you
F7M      C                  G                Dm D9
 Of all the people, of all the people to let me down
F7M       C                 G               Dm D9
  Of all the people, of all the people,   why now

Refrão:
F7m      C                  G                Dm D9
Save       me                 save             me
F7m        C                  G                Dm D9
Save       me                 save             me

   Para o solo use o mesmo padrão do refrão

Verso:
Am        C              D9 Dm          F7M  G6
 Can you tell me, can you tell me what went wrong
Am        C               D9 Dm     F7M  G6
  Guess I shoulda seen it comin' all along
Am     C         D9 Dm    F7M  G6
 Gotta fight it, I gotta be strong
Am       C                D9 Dm           F7M  G6
Gotta be something, can't let it drag on and on
F7M      C                  G                Dm D9
 Of all the people, of all the people to let me down
F7M       C                 G               Dm D9
  Of all the people, of all the people,   why now

Refrão:
F7M      C                  G                Dm D9
Save       me                 save             me
F7M      C                  G                Dm D9
Save       me                 save             me
exibições 1.355
Acordes para:
    Composição: J Mascis Colaboração e revisão:
    • Athos

    0 comentários

    mostrar mais comentários

    Conseguiu tocar?

    1 tocaram 0 ainda não

    Grave um vídeo tocando Said The People e mande pra gente!

    00:00 / 00:00
    outros vídeos desta música
    repetir qualidade Automático
    Outros vídeos desta música
    00:00 / 00:00
    Automático
    OK