Cifra Club

Ouvir o Teu Falar

Discopraise

Cifra: Principal (violão e guitarra)
tom: E
[Intro] A  F#m7  E  B/D# 
        A  F#m7  E  B/D# 
        B/A  A  B/A  A
        
E                                        C#m7   
 Quanto mais eu corro  mais cansado eu fico
                                  B
 Não importa o quanto eu me sacrifico
                       A
 Meus objetivos não consigo alcançar

E                           C#m7 
  Já trilhei em todos os caminhos
                                   B 
 Já gritei por todos mas fiquei sozinho
                            A
 Sinto minha força se esgotar Vem me ajudar

C#m7        B      A
  Tenho ouvido falar das tuas maravilhas
C#m7        B            A
   E tens poder pra salvar
C#m7            B      A              E/G#
   Escreve um novo começo pra minha vida
           F#m7       E          B/D#    B
Creio que ainda hoje tudo vai mudar 

        E
Levantarei meu olhos
        B
E clamarei socorro
       C#m7           E/G#       A
Tua palavra diz que vais me escutar
        E
Levantarei meus olhos
        B/D#
E clamarei socorro
         C#m7          E/G#        A
Meu Coração só quer ouvir o teu falar

[Solo] C#m7  B  E/G#  A  

E|-------------------------------------------------------|
B|--------------7----------------------------------------|
G|----6---8---9~---11~-8p6/4-6~-----------------------|
D|-/6---6---6--------------------------------------------|
A|-------------------------------------------------------|
E|-------------------------------------------------------|

E|-------------------------------------------------------|
B|-----14----16----17--17b19---16~-16-14/12-14b16-14~----|
G|-/13----13----13---------------------------------------|
D|-------------------------------------------------------|
A|-------------------------------------------------------|
E|-------------------------------------------------------|
    
    F#m7
O que espera em Ti
   A
Jamais se abalará
    E
Jamais se cansará
          B/D#
Jamais desistirá
       F#m7
O Teu sonho agora é o que 
          A
eu espero alcançar
    E
Em Teu caminho andar
             B/D#         B
Meu maior desejo é te agradar

        E
Levantarei meu olhos
        B
E clamarei socorro
       C#m7           E/G#       A
Tua palavra diz que vais me escutar
        E
Levantarei meus olhos
        B/D#
E clamarei socorro
         C#m7          E/G#        A
Meu Coração só quer ouvir o teu falar

  A   F#m7   E    B/D#
Ooh   ooh  ooh  ooh
  A   F#m7   E    B/D#
Ooh   ooh  ooh   ooh

[Final] B/A  B/A  A
        B/A  B/A  A
 
               E
Ouvir o teu falar, o teu falar
00:00 / 00:00
Outros vídeos desta música
Repetir
Outros vídeos desta música
Composição de Discopraise
426.134 exibições
    • ½ Tom
    • A
    • Bb
    • B
    • C
    • Db
    • D
    • Eb
    • E
    • F
    • F#
    • G
    • Ab
  • Adicionar à lista

    0 comentários

    Ver todos os comentários

    Entre para oCifra Club PRO

    Tenha acesso a benefícios exclusivos no App e no Site

    • Chega de anúncios

    • Prioridade de compra em lançamentos

    • Mais recursos no app do Afinador

    • Atendimento Prioritário

    • Descontos nos produtos Cifra Club

    • Ajude a produzir mais conteúdo

    00:00 / 00:00

    Cifra Club Pro

    Aproveite o Cifra Club com benefícios exclusivos e sem anúncios
    Cifra Club Pro
    Aproveite o Cifra Club com benefícios exclusivos e sem anúncios
    OK