Cifra Club

Basta Fuerte

Divididos

Cifra: Principal (violão e guitarra)
tom: C
INTRO PARTE 1
E|--------------------------------------------------|
B|---------------------------------12]14[12-10------|
G|-10-12-10~--------------10-12-10~--------------12-|
D|-10-12-10~--12-10-------10-12-10~-----------------|
A|-----------------12-------------------------------|
E|--------------------------------------------------|

E|--------------------------------------------------|
B|--------------------------------------------------|
G|-10-12-10~----------------------------------------|
D|-10-12-10~----10| L12-10----12~-10~-----------------
A|-----------------------12--------12-10----10[3----|
E|---------------------------------------13---------|

INTRO PARTE 2
E|--------------------------------------------------|
B|---------------------------------12]14[12-10------|
G|-10-12-10~--------------10-12-10~--------------12-|
D|-10-12-10~--12-10-------10-12-10~-----------------|
A|-----------------12-------------------------------|
E|--------------------------------------------------|

E|--------------------------------------------------|
B|--------------------------------------------------|
G|-10-12-10~----------------------------------------|
D|-10-12-10~-12-10----12~~~-------------------------|
A|-----------------12-------------------------------|
E|--------------------------------------------------|

INTRO PARTE 3
E|------------------------------------------------------------|
B|------------------------------------------------------------|
G|-------10-12~~--14~~-12~~-10-12-10--------------------------|
D|-10-12-----------------------------12-10-12~~~-10-----------|
A|-------------------------------------------------12-10-12~--|
E|------------------------------------------------------------|

INTRO PARTE 4
E|------------------------------------------------------------|
B|-----12]14~~------------------------------------------------|
G|-12~~--------12~~-10-12-10----------------------------------|
D|---------------------------12-10-12~~~-10-------------------|
A|------------------------------------------12-10-12~---------|
E|------------------------------------------------------------|
00:00 / 00:00
Outros vídeos desta música
Repetir
Outros vídeos desta música
Compositor não encontrado.
46 exibições
    • ½ Tom
    • A
    • Bb
    • B
    • C
    • Db
    • D
    • Eb
    • E
    • F
    • F#
    • G
    • Ab
  • Adicionar à lista

    0 comentários

    Ver todos os comentários

    Entre para oCifra Club PRO

    Tenha acesso a benefícios exclusivos no App e no Site

    • Chega de anúncios

    • Prioridade de compra em lançamentos

    • Mais recursos no app do Afinador

    • Atendimento Prioritário

    • Descontos nos produtos Cifra Club

    • Ajude a produzir mais conteúdo

    00:00 / 00:00

    Cifra Club Pro

    Aproveite o Cifra Club com benefícios exclusivos e sem anúncios
    Cifra Club Pro
    Aproveite o Cifra Club com benefícios exclusivos e sem anúncios
    OK