Nutshell Intro

Dixie Chicks

tom: G
Nutshell a.k.a. Not Ready to Make Nice

lyrics and vocal parts, however the unusual chord progression was lifted straight from 
by Alice in Chains.

Em7    G       D       C
-3----3----2----0---|
-3----3----3----1---|
-0----0----2----0---|
-2----0----0----2---|
-2----2---------3---|
-0----3-------------|

For further reference here is Alice in Chains' Nutshell

Em7    G       D    Cadd9
-3----3----2----0---|
-3----3----3----3---|
-0----0----2----0---|
-2----0----0----2---|
-2----2---------3---|
-0----3-------------|
Página 1 / 1

Letras e título
Acordes e artista

resetar configurações
OK